  0
SECTION
  2
HEADER
  9
$ACADVER
  1
AC1015
  9
$ACADMAINTVER
 70
     6
  9
$DWGCODEPAGE
  3
ANSI_1252
  9
$INSBASE
 10
0.0
 20
0.0
 30
0.0
  9
$EXTMIN
 10
0.0
 20
0.0
 30
0.0
  9
$EXTMAX
 10
297.0
 20
210.0
 30
0.0
  9
$LIMMIN
 10
0.0
 20
0.0
  9
$LIMMAX
 10
297.0
 20
210.0
  9
$ORTHOMODE
 70
     0
  9
$REGENMODE
 70
     1
  9
$FILLMODE
 70
     1
  9
$QTEXTMODE
 70
     0
  9
$MIRRTEXT
 70
     1
  9
$LTSCALE
 40
1.0
  9
$ATTMODE
 70
     1
  9
$TEXTSIZE
 40
2.5
  9
$TRACEWID
 40
1.0
  9
$TEXTSTYLE
  7
Standard
  9
$CLAYER
  8
0
  9
$CELTYPE
  6
ByLayer
  9
$CECOLOR
 62
   256
  9
$CELTSCALE
 40
1.0
  9
$DISPSILH
 70
     0
  9
$DIMSCALE
 40
1.0
  9
$DIMASZ
 40
2.5
  9
$DIMEXO
 40
0.625
  9
$DIMDLI
 40
3.75
  9
$DIMRND
 40
0.0
  9
$DIMDLE
 40
0.0
  9
$DIMEXE
 40
1.25
  9
$DIMTP
 40
0.0
  9
$DIMTM
 40
0.0
  9
$DIMTXT
 40
2.5
  9
$DIMCEN
 40
2.5
  9
$DIMTSZ
 40
0.0
  9
$DIMTOL
 70
     0
  9
$DIMLIM
 70
     0
  9
$DIMTIH
 70
     0
  9
$DIMTOH
 70
     0
  9
$DIMSE1
 70
     0
  9
$DIMSE2
 70
     0
  9
$DIMTAD
 70
     1
  9
$DIMZIN
 70
     8
  9
$DIMBLK
  1

  9
$DIMASO
 70
     1
  9
$DIMSHO
 70
     1
  9
$DIMPOST
  1

  9
$DIMAPOST
  1

  9
$DIMALT
 70
     0
  9
$DIMALTD
 70
     3
  9
$DIMALTF
 40
0.0393700787
  9
$DIMLFAC
 40
1.0
  9
$DIMTOFL
 70
     1
  9
$DIMTVP
 40
0.0
  9
$DIMTIX
 70
     0
  9
$DIMSOXD
 70
     0
  9
$DIMSAH
 70
     0
  9
$DIMBLK1
  1

  9
$DIMBLK2
  1

  9
$DIMSTYLE
  2
ISO-25
  9
$DIMCLRD
 70
     0
  9
$DIMCLRE
 70
     0
  9
$DIMCLRT
 70
     0
  9
$DIMTFAC
 40
1.0
  9
$DIMGAP
 40
0.625
  9
$DIMJUST
 70
     0
  9
$DIMSD1
 70
     0
  9
$DIMSD2
 70
     0
  9
$DIMTOLJ
 70
     0
  9
$DIMTZIN
 70
     8
  9
$DIMALTZ
 70
     0
  9
$DIMALTTZ
 70
     0
  9
$DIMUPT
 70
     0
  9
$DIMDEC
 70
     2
  9
$DIMTDEC
 70
     2
  9
$DIMALTU
 70
     2
  9
$DIMALTTD
 70
     3
  9
$DIMTXSTY
  7
Standard
  9
$DIMAUNIT
 70
     0
  9
$DIMADEC
 70
     0
  9
$DIMALTRND
 40
0.0
  9
$DIMAZIN
 70
     0
  9
$DIMDSEP
 70
    44
  9
$DIMATFIT
 70
     3
  9
$DIMFRAC
 70
     0
  9
$DIMLDRBLK
  1

  9
$DIMLUNIT
 70
     2
  9
$DIMLWD
 70
    -2
  9
$DIMLWE
 70
    -2
  9
$DIMTMOVE
 70
     0
  9
$LUNITS
 70
     2
  9
$LUPREC
 70
     4
  9
$SKETCHINC
 40
1.0
  9
$FILLETRAD
 40
10.0
  9
$AUNITS
 70
     0
  9
$AUPREC
 70
     0
  9
$MENU
  1
.
  9
$ELEVATION
 40
0.0
  9
$PELEVATION
 40
0.0
  9
$THICKNESS
 40
0.0
  9
$LIMCHECK
 70
     0
  9
$CHAMFERA
 40
10.0
  9
$CHAMFERB
 40
10.0
  9
$CHAMFERC
 40
20.0
  9
$CHAMFERD
 40
0.0
  9
$SKPOLY
 70
     0
  9
$TDCREATE
 40
2456469.697444178
  9
$TDUCREATE
 40
2456469.655777512
  9
$TDUPDATE
 40
2456469.69744419
  9
$TDUUPDATE
 40
2456469.655777523
  9
$TDINDWG
 40
0.0000000116
  9
$TDUSRTIMER
 40
0.0000000116
  9
$USRTIMER
 70
     1
  9
$ANGBASE
 50
0.0
  9
$ANGDIR
 70
     0
  9
$PDMODE
 70
     0
  9
$PDSIZE
 40
0.0
  9
$PLINEWID
 40
0.0
  9
$SPLFRAME
 70
     0
  9
$SPLINETYPE
 70
     6
  9
$SPLINESEGS
 70
     8
  9
$HANDSEED
  5
6B3
  9
$SURFTAB1
 70
     6
  9
$SURFTAB2
 70
     6
  9
$SURFTYPE
 70
     6
  9
$SURFU
 70
     6
  9
$SURFV
 70
     6
  9
$UCSBASE
  2

  9
$UCSNAME
  2

  9
$UCSORG
 10
0.0
 20
0.0
 30
0.0
  9
$UCSXDIR
 10
1.0
 20
0.0
 30
0.0
  9
$UCSYDIR
 10
0.0
 20
1.0
 30
0.0
  9
$UCSORTHOREF
  2

  9
$UCSORTHOVIEW
 70
     0
  9
$UCSORGTOP
 10
0.0
 20
0.0
 30
0.0
  9
$UCSORGBOTTOM
 10
0.0
 20
0.0
 30
0.0
  9
$UCSORGLEFT
 10
0.0
 20
0.0
 30
0.0
  9
$UCSORGRIGHT
 10
0.0
 20
0.0
 30
0.0
  9
$UCSORGFRONT
 10
0.0
 20
0.0
 30
0.0
  9
$UCSORGBACK
 10
0.0
 20
0.0
 30
0.0
  9
$PUCSBASE
  2

  9
$PUCSNAME
  2

  9
$PUCSORG
 10
0.0
 20
0.0
 30
0.0
  9
$PUCSXDIR
 10
1.0
 20
0.0
 30
0.0
  9
$PUCSYDIR
 10
0.0
 20
1.0
 30
0.0
  9
$PUCSORTHOREF
  2

  9
$PUCSORTHOVIEW
 70
     0
  9
$PUCSORGTOP
 10
0.0
 20
0.0
 30
0.0
  9
$PUCSORGBOTTOM
 10
0.0
 20
0.0
 30
0.0
  9
$PUCSORGLEFT
 10
0.0
 20
0.0
 30
0.0
  9
$PUCSORGRIGHT
 10
0.0
 20
0.0
 30
0.0
  9
$PUCSORGFRONT
 10
0.0
 20
0.0
 30
0.0
  9
$PUCSORGBACK
 10
0.0
 20
0.0
 30
0.0
  9
$USERI1
 70
     0
  9
$USERI2
 70
     0
  9
$USERI3
 70
     0
  9
$USERI4
 70
     0
  9
$USERI5
 70
     0
  9
$USERR1
 40
0.0
  9
$USERR2
 40
0.0
  9
$USERR3
 40
0.0
  9
$USERR4
 40
0.0
  9
$USERR5
 40
0.0
  9
$WORLDVIEW
 70
     1
  9
$SHADEDGE
 70
     3
  9
$SHADEDIF
 70
    70
  9
$TILEMODE
 70
     1
  9
$MAXACTVP
 70
    64
  9
$PINSBASE
 10
0.0
 20
0.0
 30
0.0
  9
$PLIMCHECK
 70
     0
  9
$PEXTMIN
 10
0.0
 20
0.0
 30
0.0
  9
$PEXTMAX
 10
297.0
 20
210.0
 30
0.0
  9
$PLIMMIN
 10
0.0
 20
0.0
  9
$PLIMMAX
 10
297.0
 20
210.0
  9
$UNITMODE
 70
     0
  9
$VISRETAIN
 70
     1
  9
$PLINEGEN
 70
     0
  9
$PSLTSCALE
 70
     1
  9
$TREEDEPTH
 70
  3020
  9
$CMLSTYLE
  2
Standard
  9
$CMLJUST
 70
     0
  9
$CMLSCALE
 40
20.0
  9
$PROXYGRAPHICS
 70
     1
  9
$MEASUREMENT
 70
     1
  9
$CELWEIGHT
370
    -1
  9
$ENDCAPS
280
     0
  9
$JOINSTYLE
280
     0
  9
$LWDISPLAY
290
     0
  9
$INSUNITS
 70
     4
  9
$HYPERLINKBASE
  1

  9
$STYLESHEET
  1

  9
$XEDIT
290
     1
  9
$CEPSNTYPE
380
     0
  9
$PSTYLEMODE
290
     1
  9
$FINGERPRINTGUID
  2
{3E7042FE-80AF-4F06-AD1A-AAAFA9429BB7}
  9
$VERSIONGUID
  2
{FAEB1C32-E019-11D5-929B-00C0DF256EC4}
  9
$EXTNAMES
290
     1
  9
$PSVPSCALE
 40
0.0
  9
$OLESTARTUP
290
     0
  0
ENDSEC
  0
SECTION
  2
CLASSES
  0
CLASS
  1
ACDBDICTIONARYWDFLT
  2
AcDbDictionaryWithDefault
  3
ObjectDBX Classes
 90
        0
280
     0
281
     0
  0
CLASS
  1
VISUALSTYLE
  2
AcDbVisualStyle
  3
ObjectDBX Classes
 90
     4095
280
     0
281
     0
  0
CLASS
  1
MATERIAL
  2
AcDbMaterial
  3
ObjectDBX Classes
 90
     1153
280
     0
281
     0
  0
CLASS
  1
DICTIONARYVAR
  2
AcDbDictionaryVar
  3
ObjectDBX Classes
 90
        0
280
     0
281
     0
  0
CLASS
  1
ACDBPLACEHOLDER
  2
AcDbPlaceHolder
  3
ObjectDBX Classes
 90
        0
280
     0
281
     0
  0
CLASS
  1
LAYOUT
  2
AcDbLayout
  3
ObjectDBX Classes
 90
        0
280
     0
281
     0
  0
ENDSEC
  0
SECTION
  2
TABLES
  0
TABLE
  2
VPORT
  5
8
330
0
100
AcDbSymbolTable
 70
     1
  0
VPORT
  5
29
330
8
100
AcDbSymbolTableRecord
100
AcDbViewportTableRecord
  2
*Active
 70
     0
 10
0.0
 20
0.0
 11
1.0
 21
1.0
 12
344.1869158879
 22
148.5
 13
0.0
 23
0.0
 14
10.0
 24
10.0
 15
10.0
 25
10.0
 16
0.0
 26
0.0
 36
1.0
 17
0.0
 27
0.0
 37
0.0
 40
297.0
 41
1.9729729729
 42
50.0
 43
0.0
 44
0.0
 50
0.0
 51
0.0
 71
     0
 72
   100
 73
     1
 74
     3
 75
     0
 76
     0
 77
     0
 78
     0
281
     0
 65
     1
110
0.0
120
0.0
130
0.0
111
1.0
121
0.0
131
0.0
112
0.0
122
1.0
132
0.0
 79
     0
146
0.0
  0
ENDTAB
  0
TABLE
  2
LTYPE
  5
5
330
0
100
AcDbSymbolTable
 70
     1
  0
LTYPE
  5
14
330
5
100
AcDbSymbolTableRecord
100
AcDbLinetypeTableRecord
  2
ByBlock
 70
     0
  3

 72
    65
 73
     0
 40
0.0
  0
LTYPE
  5
15
330
5
100
AcDbSymbolTableRecord
100
AcDbLinetypeTableRecord
  2
ByLayer
 70
     0
  3

 72
    65
 73
     0
 40
0.0
  0
LTYPE
  5
16
330
5
100
AcDbSymbolTableRecord
100
AcDbLinetypeTableRecord
  2
Continuous
 70
     0
  3
Solid line
 72
    65
 73
     0
 40
0.0
  0
ENDTAB
  0
TABLE
  2
LAYER
  5
2
330
0
100
AcDbSymbolTable
 70
    12
  0
LAYER
  5
10
330
2
100
AcDbSymbolTableRecord
100
AcDbLayerTableRecord
  2
0
 70
     0
 62
     7
  6
Continuous
370
    -3
390
F
  0
LAYER
  5
41
330
2
100
AcDbSymbolTableRecord
100
AcDbLayerTableRecord
  2
Default
 70
     0
 62
     7
  6
Continuous
370
    -3
390
F
  0
LAYER
  5
44
330
2
100
AcDbSymbolTableRecord
100
AcDbLayerTableRecord
  2
6021540
 70
     0
 62
     7
  6
Continuous
370
    -3
390
F
  0
LAYER
  5
60
330
2
100
AcDbSymbolTableRecord
100
AcDbLayerTableRecord
  2
6601635
 70
     0
 62
     7
  6
Continuous
370
    -3
390
F
  0
LAYER
  5
88
330
2
100
AcDbSymbolTableRecord
100
AcDbLayerTableRecord
  2
6802440
 70
     0
 62
     7
  6
Continuous
370
    -3
390
F
  0
LAYER
  5
96
330
2
100
AcDbSymbolTableRecord
100
AcDbLayerTableRecord
  2
6301665
 70
     0
 62
     7
  6
Continuous
370
    -3
390
F
  0
LAYER
  5
A5
330
2
100
AcDbSymbolTableRecord
100
AcDbLayerTableRecord
  2
1.5M_PHV_T_LOOSE
 70
     0
 62
     7
  6
Continuous
370
    -3
390
F
  0
LAYER
  5
B1
330
2
100
AcDbSymbolTableRecord
100
AcDbLayerTableRecord
  2
1.5M_T_R_LOOSE_G
 70
     0
 62
     7
  6
Continuous
370
    -3
390
F
  0
LAYER
  5
F2
330
2
100
AcDbSymbolTableRecord
100
AcDbLayerTableRecord
  2
6501201
 70
     0
 62
     7
  6
Continuous
370
    -3
390
F
  0
LAYER
  5
F9
330
2
100
AcDbSymbolTableRecord
100
AcDbLayerTableRecord
  2
6042270
 70
     0
 62
     7
  6
Continuous
370
    -3
390
F
  0
LAYER
  5
118
330
2
100
AcDbSymbolTableRecord
100
AcDbLayerTableRecord
  2
6601630
 70
     0
 62
     7
  6
Continuous
370
    -3
390
F
  0
LAYER
  5
168
330
2
100
AcDbSymbolTableRecord
100
AcDbLayerTableRecord
  2
T_R_LOOSE_GRILLE
 70
     0
 62
     7
  6
Continuous
370
    -3
390
F
  0
ENDTAB
  0
TABLE
  2
STYLE
  5
3
330
0
100
AcDbSymbolTable
 70
     2
  0
STYLE
  5
11
330
3
100
AcDbSymbolTableRecord
100
AcDbTextStyleTableRecord
  2
Standard
 70
     0
 40
0.0
 41
1.0
 50
0.0
 71
     0
 42
2.5
  3
txt
  4

  0
STYLE
  5
3F
330
3
100
AcDbSymbolTableRecord
100
AcDbTextStyleTableRecord
  2
SEACAD_arial_ttfB
 70
     0
 40
0.0
 41
1.0
 50
0.0
 71
     0
 42
0.2
  3

  4

1001
ACAD
1000
arial.ttf
1071
 33554432
  0
ENDTAB
  0
TABLE
  2
VIEW
  5
6
330
0
100
AcDbSymbolTable
 70
     0
  0
ENDTAB
  0
TABLE
  2
UCS
  5
7
330
0
100
AcDbSymbolTable
 70
     0
  0
ENDTAB
  0
TABLE
  2
APPID
  5
9
330
0
100
AcDbSymbolTable
 70
     1
  0
APPID
  5
12
330
9
100
AcDbSymbolTableRecord
100
AcDbRegAppTableRecord
  2
ACAD
 70
     0
  0
ENDTAB
  0
TABLE
  2
DIMSTYLE
  5
A
330
0
100
AcDbSymbolTable
 70
     1
100
AcDbDimStyleTable
  0
DIMSTYLE
105
27
330
A
100
AcDbSymbolTableRecord
100
AcDbDimStyleTableRecord
  2
ISO-25
 70
     0
 41
2.5
 42
0.625
 43
3.75
 44
1.25
 73
     0
 74
     0
 77
     1
 78
     8
140
2.5
141
2.5
143
0.0393700787
147
0.625
171
     3
172
     1
178
     0
271
     2
272
     2
274
     3
278
    44
283
     0
284
     8
340
11
  0
ENDTAB
  0
TABLE
  2
BLOCK_RECORD
  5
1
330
0
100
AcDbSymbolTable
 70
     7
  0
BLOCK_RECORD
  5
1F
330
1
100
AcDbSymbolTableRecord
100
AcDbBlockTableRecord
  2
*Model_Space
340
22
  0
BLOCK_RECORD
  5
1B
330
1
100
AcDbSymbolTableRecord
100
AcDbBlockTableRecord
  2
*Paper_Space
340
1E
  0
BLOCK_RECORD
  5
42
330
1
100
AcDbSymbolTableRecord
100
AcDbBlockTableRecord
  2
SE
340
0
102
{BLKREFS
331
43
102
}
  0
BLOCK_RECORD
  5
B5
330
1
100
AcDbSymbolTableRecord
100
AcDbBlockTableRecord
  2
SE1
340
0
102
{BLKREFS
331
B6
102
}
  0
BLOCK_RECORD
  5
2D4
330
1
100
AcDbSymbolTableRecord
100
AcDbBlockTableRecord
  2
SE2
340
0
102
{BLKREFS
331
2D5
102
}
  0
BLOCK_RECORD
  5
34B
330
1
100
AcDbSymbolTableRecord
100
AcDbBlockTableRecord
  2
SE3
340
0
102
{BLKREFS
331
34C
102
}
  0
BLOCK_RECORD
  5
5C5
330
1
100
AcDbSymbolTableRecord
100
AcDbBlockTableRecord
  2
SE4
340
0
102
{BLKREFS
331
5C6
102
}
  0
BLOCK_RECORD
  5
632
330
1
100
AcDbSymbolTableRecord
100
AcDbBlockTableRecord
  2
SE5
340
0
102
{BLKREFS
331
633
102
}
  0
ENDTAB
  0
ENDSEC
  0
SECTION
  2
BLOCKS
  0
BLOCK
  5
20
330
1F
100
AcDbEntity
  8
0
100
AcDbBlockBegin
  2
*Model_Space
 70
     0
 10
0.0
 20
0.0
 30
0.0
  3
*Model_Space
  1

  0
ENDBLK
  5
21
330
1F
100
AcDbEntity
  8
0
100
AcDbBlockEnd
  0
BLOCK
  5
1C
330
1B
100
AcDbEntity
 67
     1
  8
0
100
AcDbBlockBegin
  2
*Paper_Space
 70
     0
 10
0.0
 20
0.0
 30
0.0
  3
*Paper_Space
  1

  0
ENDBLK
  5
1D
330
1B
100
AcDbEntity
 67
     1
  8
0
100
AcDbBlockEnd
  0
BLOCK
  5
B3
330
42
100
AcDbEntity
  8
0
100
AcDbBlockBegin
  2
SE
 70
     0
 10
0.0
 20
0.0
 30
0.0
  3
SE
  1

  0
LINE
  5
45
330
42
100
AcDbEntity
  8
6021540
  6
Continuous
 62
     7
100
AcDbLine
 10
63.0690362759
 20
118.2308096062
 30
0.0
 11
63.0690362759
 21
118.1898693323
 31
0.0
  0
ARC
  5
46
330
42
100
AcDbEntity
  8
6021540
  6
Continuous
 62
     7
100
AcDbCircle
 10
63.0235362759
 20
118.2308096062
 30
0.0
 40
0.0910000000000064
100
AcDbArc
 50
0.0
 51
66.3531059166
  0
LINE
  5
47
330
42
100
AcDbEntity
  8
6021540
  6
Continuous
 62
     7
100
AcDbLine
 10
63.1145362759
 20
118.1898693323
 30
0.0
 11
63.0690362759
 21
118.1898693323
 31
0.0
  0
LINE
  5
48
330
42
100
AcDbEntity
  8
6021540
  6
Continuous
 62
     7
100
AcDbLine
 10
63.0690362759
 20
118.1898693323
 30
0.0
 11
63.0690362759
 21
117.2128096062
 31
0.0
  0
LINE
  5
49
330
42
100
AcDbEntity
  8
6021540
  6
Continuous
 62
     7
100
AcDbLine
 10
41.4100362759
 20
117.2128096062
 30
0.0
 11
41.4100362759
 21
131.7968096062
 31
0.0
  0
LINE
  5
4A
330
42
100
AcDbEntity
  8
6021540
  6
Continuous
 62
     7
100
AcDbLine
 10
41.4555362759
 20
131.8423096062
 30
0.0
 11
41.907596002
 21
131.8423096062
 31
0.0
  0
ARC
  5
4B
330
42
100
AcDbEntity
  8
6021540
  6
Continuous
 62
     7
100
AcDbCircle
 10
41.4555362759
 20
131.7968096062
 30
0.0
 40
0.0909999999999966
100
AcDbArc
 50
90.0
 51
180.0
  0
ARC
  5
4C
330
42
100
AcDbEntity
  8
6021540
  6
Continuous
 62
     7
100
AcDbCircle
 10
41.4555362759
 20
117.2128096062
 30
0.0
 40
0.0909999999999994
100
AcDbArc
 50
180.0
 51
270.0
  0
LINE
  5
4D
330
42
100
AcDbEntity
  8
6021540
  6
Continuous
 62
     7
100
AcDbLine
 10
41.4555362759
 20
117.1218096062
 30
0.0
 11
63.0235362759
 21
117.1218096062
 31
0.0
  0
ARC
  5
4E
330
42
100
AcDbEntity
  8
6021540
  6
Continuous
 62
     7
100
AcDbCircle
 10
63.0235362759
 20
117.2128096062
 30
0.0
 40
0.0909999999999994
100
AcDbArc
 50
270.0
 51
360.0
  0
LINE
  5
4F
330
42
100
AcDbEntity
  8
6021540
  6
Continuous
 62
     7
100
AcDbLine
 10
63.1145362759
 20
118.2308096062
 30
0.0
 11
63.1145362759
 21
118.1898693323
 31
0.0
  0
LINE
  5
50
330
42
100
AcDbEntity
  8
6021540
  6
Continuous
 62
     7
100
AcDbLine
 10
63.1145362759
 20
118.1898693323
 30
0.0
 11
63.1145362759
 21
117.2128096062
 31
0.0
  0
LINE
  5
51
330
42
100
AcDbEntity
  8
6021540
  6
Continuous
 62
     7
100
AcDbLine
 10
41.4555362759
 20
117.1673096062
 30
0.0
 11
63.0235362759
 21
117.1673096062
 31
0.0
  0
LINE
  5
52
330
42
100
AcDbEntity
  8
6021540
  6
Continuous
 62
     7
100
AcDbLine
 10
41.3645362759
 20
117.2128096062
 30
0.0
 11
41.3645362759
 21
131.7968096062
 31
0.0
  0
LINE
  5
53
330
42
100
AcDbEntity
  8
6021540
  6
Continuous
 62
     7
100
AcDbLine
 10
41.907596002
 20
131.8878096062
 30
0.0
 11
41.907596002
 21
131.8423096062
 31
0.0
  0
LINE
  5
54
330
42
100
AcDbEntity
  8
6021540
  6
Continuous
 62
     7
100
AcDbLine
 10
41.907596002
 20
131.8423096062
 30
0.0
 11
42.4735362759
 21
131.8423096062
 31
0.0
  0
ARC
  5
55
330
42
100
AcDbEntity
  8
6021540
  6
Continuous
 62
     7
100
AcDbCircle
 10
42.4735362759
 20
131.7968096062
 30
0.0
 40
0.0909999999999939
100
AcDbArc
 50
13.0190335176
 51
90.0
  0
LINE
  5
56
330
42
100
AcDbEntity
  8
6021540
  6
Continuous
 62
     7
100
AcDbLine
 10
41.4555362759
 20
131.8878096062
 30
0.0
 11
41.907596002
 21
131.8878096062
 31
0.0
  0
LINE
  5
57
330
42
100
AcDbEntity
  8
6021540
  6
Continuous
 62
     7
100
AcDbLine
 10
41.907596002
 20
131.8878096062
 30
0.0
 11
42.4735362759
 21
131.8878096062
 31
0.0
  0
ARC
  5
58
330
42
100
AcDbEntity
  8
6021540
  6
Continuous
 62
     7
100
AcDbCircle
 10
41.4555362759
 20
131.7968096062
 30
0.0
 40
0.0455000000000011
100
AcDbArc
 50
90.0
 51
180.0
  0
ARC
  5
59
330
42
100
AcDbEntity
  8
6021540
  6
Continuous
 62
     7
100
AcDbCircle
 10
42.4735362759
 20
131.7968096062
 30
0.0
 40
0.0455000000000011
100
AcDbArc
 50
26.7789415925
 51
90.0
  0
ARC
  5
5A
330
42
100
AcDbEntity
  8
6021540
  6
Continuous
 62
     7
100
AcDbCircle
 10
41.4555362759
 20
117.2128096062
 30
0.0
 40
0.0454999999999997
100
AcDbArc
 50
180.0
 51
270.0
  0
ARC
  5
5B
330
42
100
AcDbEntity
  8
6021540
  6
Continuous
 62
     7
100
AcDbCircle
 10
63.0235362759
 20
117.2128096062
 30
0.0
 40
0.0454999999999997
100
AcDbArc
 50
270.0
 51
360.0
  0
ARC
  5
5C
330
42
100
AcDbEntity
  8
6021540
  6
Continuous
 62
     7
100
AcDbCircle
 10
63.0235362759
 20
118.2308096062
 30
0.0
 40
0.0454999999999997
100
AcDbArc
 50
0.0
 51
36.6595074881
  0
LINE
  5
5D
330
42
100
AcDbEntity
  8
6021540
  6
Continuous
 62
     7
100
AcDbLine
 10
59.7297862759
 20
117.0758096062
 30
0.0
 11
60.9992862759
 21
117.0758096062
 31
0.0
  0
LINE
  5
5E
330
42
100
AcDbEntity
  8
6021540
  6
Continuous
 62
     7
100
AcDbLine
 10
59.7297862759
 20
117.1218096062
 30
0.0
 11
59.7297862759
 21
117.0758096062
 31
0.0
  0
LINE
  5
5F
330
42
100
AcDbEntity
  8
6021540
  6
Continuous
 62
     7
100
AcDbLine
 10
60.9992862759
 20
117.0758096062
 30
0.0
 11
60.9992862759
 21
117.1218096062
 31
0.0
  0
CIRCLE
  5
61
330
42
100
AcDbEntity
  8
6601635
  6
Continuous
 62
     7
100
AcDbCircle
 10
58.2850362759
 20
120.7423096062
 30
0.0
 40
0.5
  0
CIRCLE
  5
62
330
42
100
AcDbEntity
  8
6601635
  6
Continuous
 62
     7
100
AcDbCircle
 10
60.1850362759
 20
120.7423096062
 30
0.0
 40
0.635
  0
CIRCLE
  5
63
330
42
100
AcDbEntity
  8
6601635
  6
Continuous
 62
     7
100
AcDbCircle
 10
53.9600362759
 20
121.9173096062
 30
0.0
 40
0.0875
  0
CIRCLE
  5
64
330
42
100
AcDbEntity
  8
6601635
  6
Continuous
 62
     7
100
AcDbCircle
 10
53.9600362759
 20
129.4173096062
 30
0.0
 40
0.0875
  0
CIRCLE
  5
65
330
42
100
AcDbEntity
  8
6601635
  6
Continuous
 62
     7
100
AcDbCircle
 10
58.5600362759
 20
129.4173096062
 30
0.0
 40
0.0875
  0
CIRCLE
  5
66
330
42
100
AcDbEntity
  8
6601635
  6
Continuous
 62
     7
100
AcDbCircle
 10
58.5600362759
 20
121.9173096062
 30
0.0
 40
0.0875
  0
LINE
  5
67
330
42
100
AcDbEntity
  8
6601635
  6
Continuous
 62
     7
100
AcDbLine
 10
41.4711362759
 20
131.8173096062
 30
0.0
 11
41.4711362759
 21
131.7563096062
 31
0.0
  0
LINE
  5
68
330
42
100
AcDbEntity
  8
6601635
  6
Continuous
 62
     7
100
AcDbLine
 10
41.4711362759
 20
131.7563096062
 30
0.0
 11
41.5320362759
 21
131.6953096062
 31
0.0
  0
LINE
  5
69
330
42
100
AcDbEntity
  8
6601635
  6
Continuous
 62
     7
100
AcDbLine
 10
62.9989362759
 20
131.8173096062
 30
0.0
 11
62.9989362759
 21
131.7563096062
 31
0.0
  0
LINE
  5
6A
330
42
100
AcDbEntity
  8
6601635
  6
Continuous
 62
     7
100
AcDbLine
 10
62.9989362759
 20
131.7563096062
 30
0.0
 11
62.9380362759
 21
131.6953096062
 31
0.0
  0
LINE
  5
6B
330
42
100
AcDbEntity
  8
6601635
  6
Continuous
 62
     7
100
AcDbLine
 10
41.4711362759
 20
131.8173096062
 30
0.0
 11
62.9989362759
 21
131.8173096062
 31
0.0
  0
LINE
  5
6C
330
42
100
AcDbEntity
  8
6601635
  6
Continuous
 62
     7
100
AcDbLine
 10
63.0600362759
 20
131.7562096062
 30
0.0
 11
62.9990362759
 21
131.7562096062
 31
0.0
  0
LINE
  5
6D
330
42
100
AcDbEntity
  8
6601635
  6
Continuous
 62
     7
100
AcDbLine
 10
62.9990362759
 20
131.7562096062
 30
0.0
 11
62.9380362759
 21
131.6953096062
 31
0.0
  0
LINE
  5
6E
330
42
100
AcDbEntity
  8
6601635
  6
Continuous
 62
     7
100
AcDbLine
 10
63.0600362759
 20
117.2284096062
 30
0.0
 11
62.9990362759
 21
117.2284096062
 31
0.0
  0
LINE
  5
6F
330
42
100
AcDbEntity
  8
6601635
  6
Continuous
 62
     7
100
AcDbLine
 10
62.9990362759
 20
117.2284096062
 30
0.0
 11
62.9380362759
 21
117.2893096062
 31
0.0
  0
LINE
  5
70
330
42
100
AcDbEntity
  8
6601635
  6
Continuous
 62
     7
100
AcDbLine
 10
63.0600362759
 20
131.7562096062
 30
0.0
 11
63.0600362759
 21
117.2284096062
 31
0.0
  0
LINE
  5
71
330
42
100
AcDbEntity
  8
6601635
  6
Continuous
 62
     7
100
AcDbLine
 10
41.4100362759
 20
117.2284096062
 30
0.0
 11
41.4710362759
 21
117.2284096062
 31
0.0
  0
LINE
  5
72
330
42
100
AcDbEntity
  8
6601635
  6
Continuous
 62
     7
100
AcDbLine
 10
41.4710362759
 20
117.2284096062
 30
0.0
 11
41.5320362759
 21
117.2893096062
 31
0.0
  0
LINE
  5
73
330
42
100
AcDbEntity
  8
6601635
  6
Continuous
 62
     7
100
AcDbLine
 10
41.4710362759
 20
131.7562096062
 30
0.0
 11
41.5320362759
 21
131.6953096062
 31
0.0
  0
LINE
  5
74
330
42
100
AcDbEntity
  8
6601635
  6
Continuous
 62
     7
100
AcDbLine
 10
41.4100362759
 20
131.7562096062
 30
0.0
 11
41.4710362759
 21
131.7562096062
 31
0.0
  0
LINE
  5
75
330
42
100
AcDbEntity
  8
6601635
  6
Continuous
 62
     7
100
AcDbLine
 10
62.9989362759
 20
117.1673096062
 30
0.0
 11
62.9989362759
 21
117.2283096062
 31
0.0
  0
LINE
  5
76
330
42
100
AcDbEntity
  8
6601635
  6
Continuous
 62
     7
100
AcDbLine
 10
62.9989362759
 20
117.2283096062
 30
0.0
 11
62.9380362759
 21
117.2893096062
 31
0.0
  0
LINE
  5
77
330
42
100
AcDbEntity
  8
6601635
  6
Continuous
 62
     7
100
AcDbLine
 10
41.4711362759
 20
117.1673096062
 30
0.0
 11
41.4711362759
 21
117.2283096062
 31
0.0
  0
LINE
  5
78
330
42
100
AcDbEntity
  8
6601635
  6
Continuous
 62
     7
100
AcDbLine
 10
41.4711362759
 20
117.2283096062
 30
0.0
 11
41.5320362759
 21
117.2893096062
 31
0.0
  0
CIRCLE
  5
79
330
42
100
AcDbEntity
  8
6601635
  6
Continuous
 62
     7
100
AcDbCircle
 10
46.2850362759
 20
131.1923096062
 30
0.0
 40
0.125
  0
CIRCLE
  5
7A
330
42
100
AcDbEntity
  8
6601635
  6
Continuous
 62
     7
100
AcDbCircle
 10
46.2850362759
 20
130.1923096062
 30
0.0
 40
0.125
  0
CIRCLE
  5
7B
330
42
100
AcDbEntity
  8
6601635
  6
Continuous
 62
     7
100
AcDbCircle
 10
43.6350362759
 20
130.1923096062
 30
0.0
 40
0.125
  0
CIRCLE
  5
7C
330
42
100
AcDbEntity
  8
6601635
  6
Continuous
 62
     7
100
AcDbCircle
 10
43.6350362759
 20
131.1923096062
 30
0.0
 40
0.125
  0
CIRCLE
  5
7D
330
42
100
AcDbEntity
  8
6601635
  6
Continuous
 62
     7
100
AcDbCircle
 10
62.0100362759
 20
130.1923096062
 30
0.0
 40
0.125
  0
CIRCLE
  5
7E
330
42
100
AcDbEntity
  8
6601635
  6
Continuous
 62
     7
100
AcDbCircle
 10
59.3600362759
 20
130.1923096062
 30
0.0
 40
0.125
  0
CIRCLE
  5
7F
330
42
100
AcDbEntity
  8
6601635
  6
Continuous
 62
     7
100
AcDbCircle
 10
59.3600362759
 20
131.1923096062
 30
0.0
 40
0.125
  0
CIRCLE
  5
80
330
42
100
AcDbEntity
  8
6601635
  6
Continuous
 62
     7
100
AcDbCircle
 10
62.0100362759
 20
131.1923096062
 30
0.0
 40
0.125
  0
CIRCLE
  5
81
330
42
100
AcDbEntity
  8
6601635
  6
Continuous
 62
     7
100
AcDbCircle
 10
44.9600362759
 20
130.6923096062
 30
0.0
 40
0.24
  0
CIRCLE
  5
82
330
42
100
AcDbEntity
  8
6601635
  6
Continuous
 62
     7
100
AcDbCircle
 10
60.6850362759
 20
130.6923096062
 30
0.0
 40
0.24
  0
CIRCLE
  5
83
330
42
100
AcDbEntity
  8
6601635
  6
Continuous
 62
     7
100
AcDbCircle
 10
55.6100362759
 20
121.7923096062
 30
0.0
 40
0.125
  0
CIRCLE
  5
84
330
42
100
AcDbEntity
  8
6601635
  6
Continuous
 62
     7
100
AcDbCircle
 10
55.6100362759
 20
122.9423096062
 30
0.0
 40
0.125
  0
CIRCLE
  5
85
330
42
100
AcDbEntity
  8
6601635
  6
Continuous
 62
     7
100
AcDbCircle
 10
55.6100362759
 20
124.7423096062
 30
0.0
 40
0.125
  0
CIRCLE
  5
86
330
42
100
AcDbEntity
  8
6601635
  6
Continuous
 62
     7
100
AcDbCircle
 10
55.6100362759
 20
126.5423096062
 30
0.0
 40
0.125
  0
CIRCLE
  5
87
330
42
100
AcDbEntity
  8
6601635
  6
Continuous
 62
     7
100
AcDbCircle
 10
55.6100362759
 20
120.5923096062
 30
0.0
 40
0.125
  0
LINE
  5
89
330
42
100
AcDbEntity
  8
6802440
  6
Continuous
 62
     7
100
AcDbLine
 10
63.1055362759
 20
131.7718096062
 30
0.0
 11
63.1055362759
 21
118.4766901542
 31
0.0
  0
ARC
  5
8A
330
42
100
AcDbEntity
  8
6802440
  6
Continuous
 62
     7
100
AcDbCircle
 10
63.0145362759
 20
131.7718096062
 30
0.0
 40
0.0454999999999983
100
AcDbArc
 50
0.0
 51
90.0
  0
LINE
  5
8B
330
42
100
AcDbEntity
  8
6802440
  6
Continuous
 62
     7
100
AcDbLine
 10
62.9989362759
 20
131.8173096062
 30
0.0
 11
63.0145362759
 21
131.8173096062
 31
0.0
  0
LINE
  5
8C
330
42
100
AcDbEntity
  8
6802440
  6
Continuous
 62
     7
100
AcDbLine
 10
63.0600362759
 20
131.7718096062
 30
0.0
 11
63.0600362759
 21
131.7562096062
 31
0.0
  0
LINE
  5
8D
330
42
100
AcDbEntity
  8
6802440
  6
Continuous
 62
     7
100
AcDbLine
 10
62.1874765499
 20
131.8628096062
 30
0.0
 11
63.0145362759
 21
131.8628096062
 31
0.0
  0
ARC
  5
8E
330
42
100
AcDbEntity
  8
6802440
  6
Continuous
 62
     7
100
AcDbCircle
 10
63.0145362759
 20
131.7718096062
 30
0.0
 40
0.0909999999999994
100
AcDbArc
 50
0.0
 51
90.0
  0
LINE
  5
8F
330
42
100
AcDbEntity
  8
6802440
  6
Continuous
 62
     7
100
AcDbLine
 10
63.0600362759
 20
118.4766901542
 30
0.0
 11
63.1055362759
 21
118.4766901542
 31
0.0
  0
LINE
  5
90
330
42
100
AcDbEntity
  8
6802440
  6
Continuous
 62
     7
100
AcDbLine
 10
63.1055362759
 20
118.4766901542
 30
0.0
 11
63.1055362759
 21
118.4538096062
 31
0.0
  0
LINE
  5
91
330
42
100
AcDbEntity
  8
6802440
  6
Continuous
 62
     7
100
AcDbLine
 10
62.1874765499
 20
131.8173096062
 30
0.0
 11
62.1874765499
 21
131.8628096062
 31
0.0
  0
LINE
  5
92
330
42
100
AcDbEntity
  8
6802440
  6
Continuous
 62
     7
100
AcDbLine
 10
61.9465362759
 20
131.8628096062
 30
0.0
 11
62.1874765499
 21
131.8628096062
 31
0.0
  0
ARC
  5
93
330
42
100
AcDbEntity
  8
6802440
  6
Continuous
 62
     7
100
AcDbCircle
 10
63.0145362759
 20
118.4538096062
 30
0.0
 40
0.0909999999999994
100
AcDbArc
 50
300.0
 51
0.0
  0
LINE
  5
94
330
42
100
AcDbEntity
  8
6802440
  6
Continuous
 62
     7
100
AcDbLine
 10
61.9010362759
 20
131.1311213721
 30
0.0
 11
61.9010362759
 21
131.2534978404
 31
0.0
  0
ARC
  5
95
330
42
100
AcDbEntity
  8
6802440
  6
Continuous
 62
     7
100
AcDbCircle
 10
61.9465362759
 20
131.7718096062
 30
0.0
 40
0.0909999999999994
100
AcDbArc
 50
90.0
 51
150.0
  0
LINE
  5
97
330
42
100
AcDbEntity
  8
6301665
  6
Continuous
 62
     7
100
AcDbLine
 10
59.4674094569
 20
130.2563096062
 30
0.0
 11
59.2526630949
 21
130.2563096062
 31
0.0
  0
LINE
  5
98
330
42
100
AcDbEntity
  8
6301665
  6
Continuous
 62
     7
100
AcDbLine
 10
59.2693224402
 20
131.1063096062
 30
0.0
 11
59.4507501117
 21
131.1063096062
 31
0.0
  0
LINE
  5
99
330
42
100
AcDbEntity
  8
6301665
  6
Continuous
 62
     7
100
AcDbLine
 10
60.9025030455
 20
130.7938389327
 30
0.0
 11
60.8816966367
 21
130.8298766899
 31
0.0
  0
LINE
  5
9A
330
42
100
AcDbEntity
  8
6301665
  6
Continuous
 62
     7
100
AcDbLine
 10
60.7094992582
 20
130.9310596062
 30
0.0
 11
60.6605732937
 21
130.9310596062
 31
0.0
  0
LINE
  5
9B
330
42
100
AcDbEntity
  8
6301665
  6
Continuous
 62
     7
100
AcDbLine
 10
60.4923905286
 20
130.8354445636
 30
0.0
 11
60.464754893
 21
130.7875782387
 31
0.0
  0
LINE
  5
9C
330
42
100
AcDbEntity
  8
6301665
  6
Continuous
 62
     7
100
AcDbLine
 10
60.464754893
 20
130.5970409738
 30
0.0
 11
60.4923905286
 21
130.5491746489
 31
0.0
  0
LINE
  5
9D
330
42
100
AcDbEntity
  8
6301665
  6
Continuous
 62
     7
100
AcDbLine
 10
60.6605732937
 20
130.4535596062
 30
0.0
 11
60.7094992582
 21
130.4535596062
 31
0.0
  0
LINE
  5
9E
330
42
100
AcDbEntity
  8
6301665
  6
Continuous
 62
     7
100
AcDbLine
 10
60.8816966367
 20
130.5547425226
 30
0.0
 11
60.9025030455
 21
130.5907802798
 31
0.0
  0
LINE
  5
9F
330
42
100
AcDbEntity
  8
6301665
  6
Continuous
 62
     7
100
AcDbLine
 10
43.7424094569
 20
130.2563096062
 30
0.0
 11
43.5276630949
 21
130.2563096062
 31
0.0
  0
LINE
  5
A0
330
42
100
AcDbEntity
  8
6301665
  6
Continuous
 62
     7
100
AcDbLine
 10
43.5443224402
 20
131.1063096062
 30
0.0
 11
43.7257501117
 21
131.1063096062
 31
0.0
  0
LINE
  5
A1
330
42
100
AcDbEntity
  8
6301665
  6
Continuous
 62
     7
100
AcDbLine
 10
45.1868891762
 20
130.7706534743
 30
0.0
 11
45.141310506
 21
130.8495980467
 31
0.0
  0
LINE
  5
A2
330
42
100
AcDbEntity
  8
6301665
  6
Continuous
 62
     7
100
AcDbLine
 10
44.9844992582
 20
130.9310596062
 30
0.0
 11
44.9355732937
 21
130.9310596062
 31
0.0
  0
LINE
  5
A3
330
42
100
AcDbEntity
  8
6301665
  6
Continuous
 62
     7
100
AcDbLine
 10
44.9355732937
 20
130.4535596062
 30
0.0
 11
44.9844992582
 21
130.4535596062
 31
0.0
  0
LINE
  5
A4
330
42
100
AcDbEntity
  8
6301665
  6
Continuous
 62
     7
100
AcDbLine
 10
45.141310506
 20
130.5350211658
 30
0.0
 11
45.1868891762
 21
130.6139657382
 31
0.0
  0
LINE
  5
A6
330
42
100
AcDbEntity
  8
1.5M_PHV_T_LOOSE
  6
Continuous
 62
     7
100
AcDbLine
 10
42.5645362759
 20
132.6378096062
 30
0.0
 11
42.5645362759
 21
131.8173096062
 31
0.0
  0
LINE
  5
A7
330
42
100
AcDbEntity
  8
1.5M_PHV_T_LOOSE
  6
Continuous
 62
     7
100
AcDbLine
 10
61.3145362759
 20
132.6378096062
 30
0.0
 11
61.3145362759
 21
131.8173096062
 31
0.0
  0
LINE
  5
A8
330
42
100
AcDbEntity
  8
1.5M_PHV_T_LOOSE
  6
Continuous
 62
     7
100
AcDbLine
 10
62.5745362759
 20
132.9378096062
 30
0.0
 11
41.3045362759
 21
132.9378096062
 31
0.0
  0
LINE
  5
A9
330
42
100
AcDbEntity
  8
1.5M_PHV_T_LOOSE
  6
Continuous
 62
     7
100
AcDbLine
 10
41.3045362759
 20
132.9378096062
 30
0.0
 11
41.0395362759
 21
132.6728096062
 31
0.0
  0
LINE
  5
AA
330
42
100
AcDbEntity
  8
1.5M_PHV_T_LOOSE
  6
Continuous
 62
     7
100
AcDbLine
 10
62.8395362759
 20
132.6728096062
 30
0.0
 11
41.0395362759
 21
132.6728096062
 31
0.0
  0
LINE
  5
AB
330
42
100
AcDbEntity
  8
1.5M_PHV_T_LOOSE
  6
Continuous
 62
     7
100
AcDbLine
 10
41.0395362759
 20
132.6728096062
 30
0.0
 11
41.0395362759
 21
132.6378096062
 31
0.0
  0
LINE
  5
AC
330
42
100
AcDbEntity
  8
1.5M_PHV_T_LOOSE
  6
Continuous
 62
     7
100
AcDbLine
 10
62.5745362759
 20
132.9378096062
 30
0.0
 11
62.8395362759
 21
132.6728096062
 31
0.0
  0
LINE
  5
AD
330
42
100
AcDbEntity
  8
1.5M_PHV_T_LOOSE
  6
Continuous
 62
     7
100
AcDbLine
 10
62.8395362759
 20
132.6728096062
 30
0.0
 11
62.8395362759
 21
132.6378096062
 31
0.0
  0
LINE
  5
AE
330
42
100
AcDbEntity
  8
1.5M_PHV_T_LOOSE
  6
Continuous
 62
     7
100
AcDbLine
 10
62.8395362759
 20
132.6378096062
 30
0.0
 11
41.0395362759
 21
132.6378096062
 31
0.0
  0
CIRCLE
  5
AF
330
42
100
AcDbEntity
  8
1.5M_PHV_T_LOOSE
  6
Continuous
 62
     7
100
AcDbCircle
 10
43.3145362759
 20
132.0628096062
 30
0.0
 40
0.125
  0
CIRCLE
  5
B0
330
42
100
AcDbEntity
  8
1.5M_PHV_T_LOOSE
  6
Continuous
 62
     7
100
AcDbCircle
 10
59.1145362759
 20
132.0628096062
 30
0.0
 40
0.125
  0
LINE
  5
B2
330
42
100
AcDbEntity
  8
1.5M_T_R_LOOSE_G
  6
Continuous
 62
     7
100
AcDbLine
 10
43.3145362759
 20
131.9378096062
 30
0.0
 11
43.3145362759
 21
132.1878096062
 31
0.0
  0
ENDBLK
  5
B4
330
42
100
AcDbEntity
  8
0
100
AcDbBlockEnd
  0
BLOCK
  5
2D2
330
B5
100
AcDbEntity
  8
0
100
AcDbBlockBegin
  2
SE1
 70
     0
 10
0.0
 20
0.0
 30
0.0
  3
SE1
  1

  0
LINE
  5
B7
330
B5
100
AcDbEntity
  8
6021540
  6
Continuous
 62
     7
100
AcDbLine
 10
98.3484130075
 20
99.07446392
 30
0.0
 11
98.3484130075
 21
99.08346392
 31
0.0
  0
LINE
  5
B8
330
B5
100
AcDbEntity
  8
6021540
  6
Continuous
 62
     7
100
AcDbLine
 10
175.7484130075
 20
99.08346392
 30
0.0
 11
175.7484130075
 21
99.07446392
 31
0.0
  0
LINE
  5
B9
330
B5
100
AcDbEntity
  8
6021540
  6
Continuous
 62
     7
100
AcDbLine
 10
98.3484130075
 20
99.08346392
 30
0.0
 11
95.9234130075
 21
99.08346392
 31
0.0
  0
LINE
  5
BA
330
B5
100
AcDbEntity
  8
6021540
  6
Continuous
 62
     7
100
AcDbLine
 10
95.9234130075
 20
99.08346392
 30
0.0
 11
95.9234130075
 21
99.03796392
 31
0.0
  0
LINE
  5
BB
330
B5
100
AcDbEntity
  8
6021540
  6
Continuous
 62
     7
100
AcDbLine
 10
176.7984130075
 20
99.03796392
 30
0.0
 11
178.1734130075
 21
99.03796392
 31
0.0
  0
LINE
  5
BC
330
B5
100
AcDbEntity
  8
6021540
  6
Continuous
 62
     7
100
AcDbLine
 10
178.1734130075
 20
99.08346392
 30
0.0
 11
178.1734130075
 21
99.03796392
 31
0.0
  0
LINE
  5
BD
330
B5
100
AcDbEntity
  8
6021540
  6
Continuous
 62
     7
100
AcDbLine
 10
178.1734130075
 20
77.42446392
 30
0.0
 11
178.1734130075
 21
77.33346392
 31
0.0
  0
LINE
  5
BE
330
B5
100
AcDbEntity
  8
6021540
  6
Continuous
 62
     7
100
AcDbLine
 10
98.3484130075
 20
99.08346392
 30
0.0
 11
175.7484130075
 21
99.08346392
 31
0.0
  0
LINE
  5
BF
330
B5
100
AcDbEntity
  8
6021540
  6
Continuous
 62
     7
100
AcDbLine
 10
175.7484130075
 20
99.08346392
 30
0.0
 11
178.1734130075
 21
99.08346392
 31
0.0
  0
LINE
  5
C0
330
B5
100
AcDbEntity
  8
6021540
  6
Continuous
 62
     7
100
AcDbLine
 10
95.9234130075
 20
77.33346392
 30
0.0
 11
95.9234130075
 21
77.42446392
 31
0.0
  0
LINE
  5
C1
330
B5
100
AcDbEntity
  8
6021540
  6
Continuous
 62
     7
100
AcDbLine
 10
97.2984130075
 20
99.03796392
 30
0.0
 11
95.9234130075
 21
99.03796392
 31
0.0
  0
LINE
  5
C2
330
B5
100
AcDbEntity
  8
6021540
  6
Continuous
 62
     7
100
AcDbLine
 10
178.1734130075
 20
77.33346392
 30
0.0
 11
176.9984130075
 21
77.33346392
 31
0.0
  0
LINE
  5
C3
330
B5
100
AcDbEntity
  8
6021540
  6
Continuous
 62
     7
100
AcDbLine
 10
96.7984130075
 20
77.33346392
 30
0.0
 11
95.9234130075
 21
77.33346392
 31
0.0
  0
LINE
  5
C4
330
B5
100
AcDbEntity
  8
6021540
  6
Continuous
 62
     7
100
AcDbLine
 10
95.9234130075
 20
77.876523646
 30
0.0
 11
96.7984130075
 21
77.876523646
 31
0.0
  0
LINE
  5
C5
330
B5
100
AcDbEntity
  8
6021540
  6
Continuous
 62
     7
100
AcDbLine
 10
95.9234130075
 20
77.876523646
 30
0.0
 11
95.9234130075
 21
77.42446392
 31
0.0
  0
LINE
  5
C6
330
B5
100
AcDbEntity
  8
6021540
  6
Continuous
 62
     7
100
AcDbLine
 10
95.9234130075
 20
77.42446392
 30
0.0
 11
96.7984130075
 21
77.42446392
 31
0.0
  0
LINE
  5
C7
330
B5
100
AcDbEntity
  8
6021540
  6
Continuous
 62
     7
100
AcDbLine
 10
176.9984130075
 20
77.42446392
 30
0.0
 11
178.1734130075
 21
77.42446392
 31
0.0
  0
LINE
  5
C8
330
B5
100
AcDbEntity
  8
6021540
  6
Continuous
 62
     7
100
AcDbLine
 10
178.1734130075
 20
77.42446392
 30
0.0
 11
178.1734130075
 21
77.876523646
 31
0.0
  0
LINE
  5
C9
330
B5
100
AcDbEntity
  8
6021540
  6
Continuous
 62
     7
100
AcDbLine
 10
178.1734130075
 20
77.876523646
 30
0.0
 11
176.9984130075
 21
77.876523646
 31
0.0
  0
LINE
  5
CA
330
B5
100
AcDbEntity
  8
6021540
  6
Continuous
 62
     7
100
AcDbLine
 10
95.9234130075
 20
99.03796392
 30
0.0
 11
95.9234130075
 21
99.02696392
 31
0.0
  0
LINE
  5
CB
330
B5
100
AcDbEntity
  8
6021540
  6
Continuous
 62
     7
100
AcDbLine
 10
178.1734130075
 20
99.02696392
 30
0.0
 11
178.1734130075
 21
99.03796392
 31
0.0
  0
ARC
  5
CC
330
B5
100
AcDbEntity
  8
6021540
  6
Continuous
 62
     7
100
AcDbCircle
 10
173.8844130075
 20
80.93396392
 30
0.0
 40
0.2
100
AcDbArc
 50
0.0
 51
7.0364067436
  0
ARC
  5
CD
330
B5
100
AcDbEntity
  8
6021540
  6
Continuous
 62
     7
100
AcDbCircle
 10
173.8844130075
 20
80.93396392
 30
0.0
 40
0.2
100
AcDbArc
 50
172.9635932564
 51
0.0
  0
ARC
  5
CE
330
B5
100
AcDbEntity
  8
6021540
  6
Continuous
 62
     7
100
AcDbCircle
 10
141.6984130075
 20
80.93396392
 30
0.0
 40
0.2
100
AcDbArc
 50
0.0
 51
7.0364067436
  0
ARC
  5
CF
330
B5
100
AcDbEntity
  8
6021540
  6
Continuous
 62
     7
100
AcDbCircle
 10
141.6984130075
 20
80.93396392
 30
0.0
 40
0.2
100
AcDbArc
 50
172.9635932564
 51
0.0
  0
ARC
  5
D0
330
B5
100
AcDbEntity
  8
6021540
  6
Continuous
 62
     7
100
AcDbCircle
 10
108.1234130075
 20
80.93396392
 30
0.0
 40
0.2
100
AcDbArc
 50
0.0
 51
7.0364067436
  0
ARC
  5
D1
330
B5
100
AcDbEntity
  8
6021540
  6
Continuous
 62
     7
100
AcDbCircle
 10
108.1234130075
 20
80.93396392
 30
0.0
 40
0.2
100
AcDbArc
 50
172.9635932564
 51
0.0
  0
ARC
  5
D2
330
B5
100
AcDbEntity
  8
6021540
  6
Continuous
 62
     7
100
AcDbCircle
 10
100.2124130075
 20
80.93396392
 30
0.0
 40
0.2
100
AcDbArc
 50
0.0
 51
7.0364067436
  0
ARC
  5
D3
330
B5
100
AcDbEntity
  8
6021540
  6
Continuous
 62
     7
100
AcDbCircle
 10
100.2124130075
 20
80.93396392
 30
0.0
 40
0.2
100
AcDbArc
 50
172.9635932564
 51
0.0
  0
ARC
  5
D4
330
B5
100
AcDbEntity
  8
6021540
  6
Continuous
 62
     7
100
AcDbCircle
 10
106.9239130075
 20
91.2697312217
 30
0.0
 40
0.7500000000000029
100
AcDbArc
 50
315.0536445925
 51
323.2477259053
  0
ARC
  5
D5
330
B5
100
AcDbEntity
  8
6021540
  6
Continuous
 62
     7
100
AcDbCircle
 10
106.9239130075
 20
91.2697312217
 30
0.0
 40
0.7500000000000029
100
AcDbArc
 50
38.8209629843
 51
47.3052668507
  0
ARC
  5
D6
330
B5
100
AcDbEntity
  8
6021540
  6
Continuous
 62
     7
100
AcDbCircle
 10
106.4239130075
 20
91.2697312217
 30
0.0
 40
0.7499999999999993
100
AcDbArc
 50
132.6947331493
 51
141.1790370157
  0
ARC
  5
D7
330
B5
100
AcDbEntity
  8
6021540
  6
Continuous
 62
     7
100
AcDbCircle
 10
106.4239130075
 20
91.2697312217
 30
0.0
 40
0.7499999999999993
100
AcDbArc
 50
216.7522740947
 51
224.9463554075
  0
ARC
  5
D8
330
B5
100
AcDbEntity
  8
6021540
  6
Continuous
 62
     7
100
AcDbCircle
 10
106.9239130075
 20
89.3697312236
 30
0.0
 40
0.7500000000000021
100
AcDbArc
 50
302.8833408276
 51
312.9717615683
  0
ARC
  5
D9
330
B5
100
AcDbEntity
  8
6021540
  6
Continuous
 62
     7
100
AcDbCircle
 10
106.9239130075
 20
89.3697312236
 30
0.0
 40
0.7500000000000021
100
AcDbArc
 50
29.5745481658
 51
36.9877023951
  0
ARC
  5
DA
330
B5
100
AcDbEntity
  8
6021540
  6
Continuous
 62
     7
100
AcDbCircle
 10
106.4239130075
 20
89.3697312236
 30
0.0
 40
0.7500000000000003
100
AcDbArc
 50
143.0122976049
 51
150.4254518342
  0
ARC
  5
DB
330
B5
100
AcDbEntity
  8
6021540
  6
Continuous
 62
     7
100
AcDbCircle
 10
106.4239130075
 20
89.3697312236
 30
0.0
 40
0.7500000000000003
100
AcDbArc
 50
227.0282384317
 51
237.1166591724
  0
ARC
  5
DC
330
B5
100
AcDbEntity
  8
6021540
  6
Continuous
 62
     7
100
AcDbCircle
 10
100.3484130075
 20
96.33346392
 30
0.0
 40
0.58925
100
AcDbArc
 50
43.6101606789
 51
136.3898393211
  0
ARC
  5
DD
330
B5
100
AcDbEntity
  8
6021540
  6
Continuous
 62
     7
100
AcDbCircle
 10
100.3484130075
 20
96.33346392
 30
0.0
 40
0.58925
100
AcDbArc
 50
240.4295639321
 51
299.5704360679
  0
ARC
  5
DE
330
B5
100
AcDbEntity
  8
6021540
  6
Continuous
 62
     7
100
AcDbCircle
 10
102.8484130075
 20
96.33346392
 30
0.0
 40
0.58925
100
AcDbArc
 50
43.6101606789
 51
136.3898393211
  0
ARC
  5
DF
330
B5
100
AcDbEntity
  8
6021540
  6
Continuous
 62
     7
100
AcDbCircle
 10
102.8484130075
 20
96.33346392
 30
0.0
 40
0.58925
100
AcDbArc
 50
240.4295639321
 51
299.5704360679
  0
ARC
  5
E0
330
B5
100
AcDbEntity
  8
6021540
  6
Continuous
 62
     7
100
AcDbCircle
 10
101.9859130075
 20
81.54146392
 30
0.0
 40
0.3574999999999995
100
AcDbArc
 50
90.0
 51
226.193220185
  0
LINE
  5
E1
330
B5
100
AcDbEntity
  8
6021540
  6
Continuous
 62
     7
100
AcDbLine
 10
101.9859130075
 20
81.89896392
 30
0.0
 11
102.2359130075
 21
81.89896392
 31
0.0
  0
ARC
  5
E2
330
B5
100
AcDbEntity
  8
6021540
  6
Continuous
 62
     7
100
AcDbCircle
 10
102.2359130075
 20
81.54146392
 30
0.0
 40
0.3574999999999995
100
AcDbArc
 50
313.806779815
 51
90.0
  0
ARC
  5
E3
330
B5
100
AcDbEntity
  8
6021540
  6
Continuous
 62
     7
100
AcDbCircle
 10
101.8609130075
 20
83.44146392
 30
0.0
 40
0.8750000000000001
100
AcDbArc
 50
342.8510287675
 51
0.0
  0
ARC
  5
E4
330
B5
100
AcDbEntity
  8
6021540
  6
Continuous
 62
     7
100
AcDbCircle
 10
101.8609130075
 20
83.44146392
 30
0.0
 40
0.8750000000000001
100
AcDbArc
 50
221.7810376403
 51
318.2189623597
  0
ARC
  5
E5
330
B5
100
AcDbEntity
  8
6021540
  6
Continuous
 62
     7
100
AcDbCircle
 10
101.8609130075
 20
83.44146392
 30
0.0
 40
0.8750000000000001
100
AcDbArc
 50
154.2964899358
 51
197.1489712325
  0
ARC
  5
E6
330
B5
100
AcDbEntity
  8
6021540
  6
Continuous
 62
     7
100
AcDbCircle
 10
101.8609130075
 20
83.44146392
 30
0.0
 40
0.8750000000000001
100
AcDbArc
 50
0.0
 51
25.7035100642
  0
ARC
  5
E7
330
B5
100
AcDbEntity
  8
6021540
  6
Continuous
 62
     7
100
AcDbCircle
 10
101.8609130075
 20
79.64146392
 30
0.0
 40
0.8750000000000001
100
AcDbArc
 50
342.8510287675
 51
0.0
  0
ARC
  5
E8
330
B5
100
AcDbEntity
  8
6021540
  6
Continuous
 62
     7
100
AcDbCircle
 10
101.8609130075
 20
79.64146392
 30
0.0
 40
0.8750000000000001
100
AcDbArc
 50
221.7810376403
 51
318.2189623597
  0
ARC
  5
E9
330
B5
100
AcDbEntity
  8
6021540
  6
Continuous
 62
     7
100
AcDbCircle
 10
101.8609130075
 20
79.64146392
 30
0.0
 40
0.8750000000000001
100
AcDbArc
 50
155.2014839254
 51
197.1489712325
  0
ARC
  5
EA
330
B5
100
AcDbEntity
  8
6021540
  6
Continuous
 62
     7
100
AcDbCircle
 10
101.8609130075
 20
79.64146392
 30
0.0
 40
0.8750000000000001
100
AcDbArc
 50
52.2656851186
 51
127.7343148814
  0
ARC
  5
EB
330
B5
100
AcDbEntity
  8
6021540
  6
Continuous
 62
     7
100
AcDbCircle
 10
101.8609130075
 20
79.64146392
 30
0.0
 40
0.8750000000000001
100
AcDbArc
 50
0.0
 51
24.7985160746
  0
ARC
  5
EC
330
B5
100
AcDbEntity
  8
6021540
  6
Continuous
 62
     7
100
AcDbCircle
 10
171.8609130075
 20
81.5021573944
 30
0.0
 40
0.3574999999999995
100
AcDbArc
 50
90.0
 51
217.7146984932
  0
LINE
  5
ED
330
B5
100
AcDbEntity
  8
6021540
  6
Continuous
 62
     7
100
AcDbLine
 10
171.8609130075
 20
81.8596573944
 30
0.0
 11
172.1109130075
 21
81.8596573944
 31
0.0
  0
ARC
  5
EE
330
B5
100
AcDbEntity
  8
6021540
  6
Continuous
 62
     7
100
AcDbCircle
 10
172.1109130075
 20
81.5021573944
 30
0.0
 40
0.3574999999999995
100
AcDbArc
 50
322.2853015068
 51
90.0
  0
ARC
  5
EF
330
B5
100
AcDbEntity
  8
6021540
  6
Continuous
 62
     7
100
AcDbCircle
 10
137.0484130075
 20
80.09996392
 30
0.0
 40
0.3250000000000001
100
AcDbArc
 50
285.6184982756
 51
343.6479536238
  0
ARC
  5
F0
330
B5
100
AcDbEntity
  8
6021540
  6
Continuous
 62
     7
100
AcDbCircle
 10
137.0484130075
 20
80.09996392
 30
0.0
 40
0.3250000000000001
100
AcDbArc
 50
45.9276078476
 51
74.3815017244
  0
ARC
  5
F1
330
B5
100
AcDbEntity
  8
6021540
  6
Continuous
 62
     7
100
AcDbCircle
 10
137.0484130075
 20
95.82896392
 30
0.0
 40
0.3250000000000001
100
AcDbArc
 50
344.0946343063
 51
358.589499885
  0
LINE
  5
F3
330
B5
100
AcDbEntity
  8
6501201
  6
Continuous
 62
     7
100
AcDbLine
 10
112.8234130075
 20
93.82096392
 30
0.0
 11
112.8234130075
 21
93.7398979028
 31
0.0
  0
LINE
  5
F4
330
B5
100
AcDbEntity
  8
6501201
  6
Continuous
 62
     7
100
AcDbLine
 10
111.3234130075
 20
93.7398979028
 30
0.0
 11
111.3234130075
 21
93.82096392
 31
0.0
  0
LINE
  5
F5
330
B5
100
AcDbEntity
  8
6501201
  6
Continuous
 62
     7
100
AcDbLine
 10
112.8234130075
 20
92.7398979028
 30
0.0
 11
112.8234130075
 21
92.82096392
 31
0.0
  0
LINE
  5
F6
330
B5
100
AcDbEntity
  8
6501201
  6
Continuous
 62
     7
100
AcDbLine
 10
111.3234130075
 20
92.82096392
 30
0.0
 11
111.3234130075
 21
92.7398979028
 31
0.0
  0
ELLIPSE
  5
F7
330
B5
100
AcDbEntity
  8
6501201
  6
Continuous
 62
     7
100
AcDbEllipse
 10
112.0734130075
 20
92.7499260403
 30
0.0
 11
-0.2499999999999974
 21
-1.387778780781446E-15
 31
0.0
210
0.0
220
0.0
230
1.0
 40
0.7071067812
 41
3.0848344723668
 42
3.555129924160883
  0
ELLIPSE
  5
F8
330
B5
100
AcDbEntity
  8
6501201
  6
Continuous
 62
     7
100
AcDbEllipse
 10
112.0734130075
 20
92.7930595539
 30
0.0
 11
-0.2499999999999974
 21
-1.387778780781446E-15
 31
0.0
210
0.0
220
0.0
230
1.0
 40
0.7071067812
 41
2.836137058726394
 42
3.019287966938089
  0
LINE
  5
FA
330
B5
100
AcDbEntity
  8
6042270
  6
Continuous
 62
     7
100
AcDbLine
 10
151.0484130075
 20
84.82096392
 30
0.0
 11
151.0484130075
 21
84.7398979028
 31
0.0
  0
LINE
  5
FB
330
B5
100
AcDbEntity
  8
6042270
  6
Continuous
 62
     7
100
AcDbLine
 10
147.2984130075
 20
84.7398979028
 30
0.0
 11
147.2984130075
 21
84.82096392
 31
0.0
  0
ARC
  5
FC
330
B5
100
AcDbEntity
  8
6042270
  6
Continuous
 62
     7
100
AcDbCircle
 10
150.5484130075
 20
84.92896392
 30
0.0
 40
0.125
100
AcDbArc
 50
239.7687137449
 51
300.2312862551
  0
ARC
  5
FD
330
B5
100
AcDbEntity
  8
6042270
  6
Continuous
 62
     7
100
AcDbCircle
 10
147.7984130075
 20
84.92896392
 30
0.0
 40
0.125
100
AcDbArc
 50
239.7687137449
 51
300.2312862551
  0
LINE
  5
FE
330
B5
100
AcDbEntity
  8
6601635
  6
Continuous
 62
     7
100
AcDbLine
 10
178.2734130075
 20
98.90696392
 30
0.0
 11
178.2734130075
 21
77.50096392
 31
0.0
  0
LINE
  5
FF
330
B5
100
AcDbEntity
  8
6601635
  6
Continuous
 62
     7
100
AcDbLine
 10
178.1734130075
 20
77.44006392
 30
0.0
 11
178.2570681068
 21
77.44006392
 31
0.0
  0
ELLIPSE
  5
100
330
B5
100
AcDbEntity
  8
6601635
  6
Continuous
 62
     7
100
AcDbEllipse
 10
178.1514130075
 20
77.50096392
 30
0.0
 11
-0.1220000000000055
 21
-1.583455588871630E-12
 31
0.0
210
0.0
220
0.0
230
1.0
 40
0.9983606557
 41
2.617993877978373
 42
3.141592653589743
  0
LINE
  5
101
330
B5
100
AcDbEntity
  8
6601635
  6
Continuous
 62
     7
100
AcDbLine
 10
178.1514130075
 20
98.96786392
 30
0.0
 11
178.2570681068
 21
98.96786392
 31
0.0
  0
ELLIPSE
  5
102
330
B5
100
AcDbEntity
  8
6601635
  6
Continuous
 62
     7
100
AcDbEllipse
 10
178.1514130075
 20
98.90696392
 30
0.0
 11
-0.1220000000000221
 21
-2.520206265899106E-12
 31
0.0
210
0.0
220
0.0
230
1.0
 40
0.9983606557
 41
3.141592653589793
 42
3.665191429167868
  0
LINE
  5
103
330
B5
100
AcDbEntity
  8
6601635
  6
Continuous
 62
     7
100
AcDbLine
 10
178.1514130075
 20
98.96786392
 30
0.0
 11
176.7984130075
 21
98.96786392
 31
0.0
  0
LINE
  5
104
330
B5
100
AcDbEntity
  8
6601635
  6
Continuous
 62
     7
100
AcDbLine
 10
178.1514130075
 20
77.876523646
 30
0.0
 11
178.1514130075
 21
98.96786392
 31
0.0
  0
LINE
  5
105
330
B5
100
AcDbEntity
  8
6601635
  6
Continuous
 62
     7
100
AcDbLine
 10
176.7984130075
 20
98.96796392
 30
0.0
 11
178.1514130075
 21
98.96796392
 31
0.0
  0
ARC
  5
106
330
B5
100
AcDbEntity
  8
6601635
  6
Continuous
 62
     7
100
AcDbCircle
 10
178.1514130075
 20
98.90696392
 30
0.0
 40
0.1220000000000013
100
AcDbArc
 50
30.0
 51
90.0
  0
ARC
  5
107
330
B5
100
AcDbEntity
  8
6601635
  6
Continuous
 62
     7
100
AcDbCircle
 10
178.1514130075
 20
98.90696392
 30
0.0
 40
0.1219999999999996
100
AcDbArc
 50
0.0
 51
30.0
  0
LINE
  5
108
330
B5
100
AcDbEntity
  8
6601635
  6
Continuous
 62
     7
100
AcDbLine
 10
178.2570681068
 20
98.96796392
 30
0.0
 11
178.1514130075
 21
98.96796392
 31
0.0
  0
LINE
  5
109
330
B5
100
AcDbEntity
  8
6601635
  6
Continuous
 62
     7
100
AcDbLine
 10
176.7984130075
 20
99.02896392
 30
0.0
 11
178.1514130075
 21
99.02896392
 31
0.0
  0
ARC
  5
10A
330
B5
100
AcDbEntity
  8
6601635
  6
Continuous
 62
     7
100
AcDbCircle
 10
178.1514130075
 20
77.50096392
 30
0.0
 40
0.1220000000000497
100
AcDbArc
 50
330.0
 51
360.0
  0
LINE
  5
10B
330
B5
100
AcDbEntity
  8
6601635
  6
Continuous
 62
     7
100
AcDbLine
 10
178.2570681068
 20
77.43996392
 30
0.0
 11
178.1734130075
 21
77.43996392
 31
0.0
  0
ARC
  5
10C
330
B5
100
AcDbEntity
  8
6601635
  6
Continuous
 62
     7
100
AcDbCircle
 10
178.1514130075
 20
77.50096392
 30
0.0
 40
0.1220000000000013
100
AcDbArc
 50
280.3888578155
 51
330.0
  0
ARC
  5
10D
330
B5
100
AcDbEntity
  8
6601635
  6
Continuous
 62
     7
100
AcDbCircle
 10
177.7734130075
 20
97.80396392
 30
0.0
 40
0.125
100
AcDbArc
 50
130.6662656495
 51
279.4189307061
  0
LINE
  5
10E
330
B5
100
AcDbEntity
  8
6601635
  6
Continuous
 62
     7
100
AcDbLine
 10
176.9984130075
 20
81.39646392
 30
0.0
 11
177.7734130075
 21
81.39646392
 31
0.0
  0
LINE
  5
10F
330
B5
100
AcDbEntity
  8
6601635
  6
Continuous
 62
     7
100
AcDbLine
 10
177.7734130075
 20
81.39646392
 30
0.0
 11
177.7734130075
 21
78.80396392
 31
0.0
  0
LINE
  5
110
330
B5
100
AcDbEntity
  8
6601635
  6
Continuous
 62
     7
100
AcDbLine
 10
177.7734130075
 20
78.80396392
 30
0.0
 11
176.9984130075
 21
78.80396392
 31
0.0
  0
LINE
  5
111
330
B5
100
AcDbEntity
  8
6601635
  6
Continuous
 62
     7
100
AcDbLine
 10
176.9984130075
 20
97.12546392
 30
0.0
 11
177.7734130075
 21
97.12546392
 31
0.0
  0
LINE
  5
112
330
B5
100
AcDbEntity
  8
6601635
  6
Continuous
 62
     7
100
AcDbLine
 10
177.7734130075
 20
97.12546392
 30
0.0
 11
177.7734130075
 21
94.53296392
 31
0.0
  0
LINE
  5
113
330
B5
100
AcDbEntity
  8
6601635
  6
Continuous
 62
     7
100
AcDbLine
 10
177.7734130075
 20
94.53296392
 30
0.0
 11
176.9984130075
 21
94.53296392
 31
0.0
  0
CIRCLE
  5
114
330
B5
100
AcDbEntity
  8
6601635
  6
Continuous
 62
     7
100
AcDbCircle
 10
177.7124130075
 20
93.88296392
 30
0.0
 40
0.125
  0
CIRCLE
  5
115
330
B5
100
AcDbEntity
  8
6601635
  6
Continuous
 62
     7
100
AcDbCircle
 10
177.7124130075
 20
97.77546392
 30
0.0
 40
0.125
  0
CIRCLE
  5
116
330
B5
100
AcDbEntity
  8
6601635
  6
Continuous
 62
     7
100
AcDbCircle
 10
177.7124130075
 20
78.15396392
 30
0.0
 40
0.125
  0
CIRCLE
  5
117
330
B5
100
AcDbEntity
  8
6601635
  6
Continuous
 62
     7
100
AcDbCircle
 10
177.7124130075
 20
82.04646392
 30
0.0
 40
0.125
  0
LINE
  5
119
330
B5
100
AcDbEntity
  8
6601630
  6
Continuous
 62
     7
100
AcDbLine
 10
95.8234130075
 20
98.90696392
 30
0.0
 11
95.8234130075
 21
77.50096392
 31
0.0
  0
LINE
  5
11A
330
B5
100
AcDbEntity
  8
6601630
  6
Continuous
 62
     7
100
AcDbLine
 10
95.9234130075
 20
77.44006392
 30
0.0
 11
95.8397579083
 21
77.44006392
 31
0.0
  0
ELLIPSE
  5
11B
330
B5
100
AcDbEntity
  8
6601630
  6
Continuous
 62
     7
100
AcDbEllipse
 10
95.9454130075
 20
77.50096392
 30
0.0
 11
0.1220000000000165
 21
-1.694477891334145E-12
 31
0.0
210
0.0
220
0.0
230
1.0
 40
0.9983606557
 41
3.141592653589793
 42
3.665191429202512
  0
LINE
  5
11C
330
B5
100
AcDbEntity
  8
6601630
  6
Continuous
 62
     7
100
AcDbLine
 10
95.9454130075
 20
98.96786392
 30
0.0
 11
95.8397579083
 21
98.96786392
 31
0.0
  0
ELLIPSE
  5
11D
330
B5
100
AcDbEntity
  8
6601630
  6
Continuous
 62
     7
100
AcDbEllipse
 10
95.9454130075
 20
98.90696392
 30
0.0
 11
0.1219999999999832
 21
3.143318938469974E-12
 31
0.0
210
0.0
220
0.0
230
1.0
 40
0.9983606557
 41
2.617993877965224
 42
3.141592653589793
  0
LINE
  5
11E
330
B5
100
AcDbEntity
  8
6601630
  6
Continuous
 62
     7
100
AcDbLine
 10
95.9454130075
 20
98.96786392
 30
0.0
 11
97.2984130075
 21
98.96786392
 31
0.0
  0
LINE
  5
11F
330
B5
100
AcDbEntity
  8
6601630
  6
Continuous
 62
     7
100
AcDbLine
 10
95.9454130075
 20
77.876523646
 30
0.0
 11
95.9454130075
 21
98.96786392
 31
0.0
  0
LINE
  5
120
330
B5
100
AcDbEntity
  8
6601630
  6
Continuous
 62
     7
100
AcDbLine
 10
97.2984130075
 20
98.96796392
 30
0.0
 11
95.9454130075
 21
98.96796392
 31
0.0
  0
ARC
  5
121
330
B5
100
AcDbEntity
  8
6601630
  6
Continuous
 62
     7
100
AcDbCircle
 10
95.9454130075
 20
98.90696392
 30
0.0
 40
0.1220000000000013
100
AcDbArc
 50
90.0
 51
150.0
  0
ARC
  5
122
330
B5
100
AcDbEntity
  8
6601630
  6
Continuous
 62
     7
100
AcDbCircle
 10
95.9454130075
 20
98.90696392
 30
0.0
 40
0.1220000000000002
100
AcDbArc
 50
150.0
 51
180.0
  0
LINE
  5
123
330
B5
100
AcDbEntity
  8
6601630
  6
Continuous
 62
     7
100
AcDbLine
 10
95.8397579083
 20
98.96796392
 30
0.0
 11
95.9454130075
 21
98.96796392
 31
0.0
  0
LINE
  5
124
330
B5
100
AcDbEntity
  8
6601630
  6
Continuous
 62
     7
100
AcDbLine
 10
97.2984130075
 20
99.02896392
 30
0.0
 11
95.9454130075
 21
99.02896392
 31
0.0
  0
ARC
  5
125
330
B5
100
AcDbEntity
  8
6601630
  6
Continuous
 62
     7
100
AcDbCircle
 10
95.9454130075
 20
77.50096392
 30
0.0
 40
0.1219999999999768
100
AcDbArc
 50
180.0
 51
210.0
  0
LINE
  5
126
330
B5
100
AcDbEntity
  8
6601630
  6
Continuous
 62
     7
100
AcDbLine
 10
95.8397579083
 20
77.43996392
 30
0.0
 11
95.9234130075
 21
77.43996392
 31
0.0
  0
ARC
  5
127
330
B5
100
AcDbEntity
  8
6601630
  6
Continuous
 62
     7
100
AcDbCircle
 10
95.9454130075
 20
77.50096392
 30
0.0
 40
0.1220000000000013
100
AcDbArc
 50
210.0
 51
259.6111421845
  0
ARC
  5
128
330
B5
100
AcDbEntity
  8
6601630
  6
Continuous
 62
     7
100
AcDbCircle
 10
96.3234130075
 20
97.80396392
 30
0.0
 40
0.125
100
AcDbArc
 50
260.5810692912
 51
0.0
  0
ARC
  5
129
330
B5
100
AcDbEntity
  8
6601630
  6
Continuous
 62
     7
100
AcDbCircle
 10
96.3234130075
 20
97.80396392
 30
0.0
 40
0.125
100
AcDbArc
 50
0.0
 51
49.3337343531
  0
LINE
  5
12A
330
B5
100
AcDbEntity
  8
6601630
  6
Continuous
 62
     7
100
AcDbLine
 10
96.7984130075
 20
81.39646392
 30
0.0
 11
96.3234130075
 21
81.39646392
 31
0.0
  0
LINE
  5
12B
330
B5
100
AcDbEntity
  8
6601630
  6
Continuous
 62
     7
100
AcDbLine
 10
96.3234130075
 20
81.39646392
 30
0.0
 11
96.3234130075
 21
78.80396392
 31
0.0
  0
LINE
  5
12C
330
B5
100
AcDbEntity
  8
6601630
  6
Continuous
 62
     7
100
AcDbLine
 10
96.3234130075
 20
78.80396392
 30
0.0
 11
96.7984130075
 21
78.80396392
 31
0.0
  0
LINE
  5
12D
330
B5
100
AcDbEntity
  8
6601630
  6
Continuous
 62
     7
100
AcDbLine
 10
96.7984130075
 20
97.12546392
 30
0.0
 11
96.3234130075
 21
97.12546392
 31
0.0
  0
LINE
  5
12E
330
B5
100
AcDbEntity
  8
6601630
  6
Continuous
 62
     7
100
AcDbLine
 10
96.3234130075
 20
97.12546392
 30
0.0
 11
96.3234130075
 21
94.53296392
 31
0.0
  0
LINE
  5
12F
330
B5
100
AcDbEntity
  8
6601630
  6
Continuous
 62
     7
100
AcDbLine
 10
96.3234130075
 20
94.53296392
 30
0.0
 11
96.7984130075
 21
94.53296392
 31
0.0
  0
CIRCLE
  5
130
330
B5
100
AcDbEntity
  8
6601630
  6
Continuous
 62
     7
100
AcDbCircle
 10
96.3844130075
 20
93.88296392
 30
0.0
 40
0.125
  0
CIRCLE
  5
131
330
B5
100
AcDbEntity
  8
6601630
  6
Continuous
 62
     7
100
AcDbCircle
 10
96.3844130075
 20
97.77546392
 30
0.0
 40
0.125
  0
CIRCLE
  5
132
330
B5
100
AcDbEntity
  8
6601630
  6
Continuous
 62
     7
100
AcDbCircle
 10
96.3844130075
 20
78.15396392
 30
0.0
 40
0.125
  0
CIRCLE
  5
133
330
B5
100
AcDbEntity
  8
6601630
  6
Continuous
 62
     7
100
AcDbCircle
 10
96.3844130075
 20
82.04646392
 30
0.0
 40
0.125
  0
LINE
  5
134
330
B5
100
AcDbEntity
  8
6301665
  6
Continuous
 62
     7
100
AcDbLine
 10
96.3234130075
 20
97.04671392
 30
0.0
 11
96.7984130075
 21
97.04671392
 31
0.0
  0
ARC
  5
135
330
B5
100
AcDbEntity
  8
6301665
  6
Continuous
 62
     7
100
AcDbCircle
 10
97.0734130075
 20
95.82921392
 30
0.0
 40
0.3
100
AcDbArc
 50
156.4435356909
 51
203.5564643091
  0
LINE
  5
136
330
B5
100
AcDbEntity
  8
6301665
  6
Continuous
 62
     7
100
AcDbLine
 10
96.7984130075
 20
94.61171392
 30
0.0
 11
96.3234130075
 21
94.61171392
 31
0.0
  0
LINE
  5
137
330
B5
100
AcDbEntity
  8
6301665
  6
Continuous
 62
     7
100
AcDbLine
 10
96.3234130075
 20
81.31771392
 30
0.0
 11
96.7984130075
 21
81.31771392
 31
0.0
  0
ARC
  5
138
330
B5
100
AcDbEntity
  8
6301665
  6
Continuous
 62
     7
100
AcDbCircle
 10
97.0734130075
 20
80.10021392
 30
0.0
 40
0.3
100
AcDbArc
 50
156.4435356909
 51
203.5564643091
  0
LINE
  5
139
330
B5
100
AcDbEntity
  8
6301665
  6
Continuous
 62
     7
100
AcDbLine
 10
96.7984130075
 20
78.88271392
 30
0.0
 11
96.3234130075
 21
78.88271392
 31
0.0
  0
LINE
  5
13A
330
B5
100
AcDbEntity
  8
6802440
  6
Continuous
 62
     7
100
AcDbLine
 10
97.2984130075
 20
99.07446392
 30
0.0
 11
176.7984130075
 21
99.07446392
 31
0.0
  0
LINE
  5
13B
330
B5
100
AcDbEntity
  8
6802440
  6
Continuous
 62
     7
100
AcDbLine
 10
176.7984130075
 20
98.98346392
 30
0.0
 11
97.2984130075
 21
98.98346392
 31
0.0
  0
LINE
  5
13C
330
B5
100
AcDbEntity
  8
6802440
  6
Continuous
 62
     7
100
AcDbLine
 10
176.7984130075
 20
98.80846392
 30
0.0
 11
176.7984130075
 21
98.98346392
 31
0.0
  0
LINE
  5
13D
330
B5
100
AcDbEntity
  8
6802440
  6
Continuous
 62
     7
100
AcDbLine
 10
97.2984130075
 20
98.98346392
 30
0.0
 11
97.2984130075
 21
98.80846392
 31
0.0
  0
LINE
  5
13E
330
B5
100
AcDbEntity
  8
6802440
  6
Continuous
 62
     7
100
AcDbLine
 10
176.7984130075
 20
98.98346392
 30
0.0
 11
176.7984130075
 21
99.07446392
 31
0.0
  0
LINE
  5
13F
330
B5
100
AcDbEntity
  8
6802440
  6
Continuous
 62
     7
100
AcDbLine
 10
97.2984130075
 20
99.07446392
 30
0.0
 11
97.2984130075
 21
98.98346392
 31
0.0
  0
LINE
  5
140
330
B5
100
AcDbEntity
  8
6301665
  6
Continuous
 62
     7
100
AcDbLine
 10
177.7734130075
 20
94.61171392
 30
0.0
 11
176.9984130075
 21
94.61171392
 31
0.0
  0
ARC
  5
141
330
B5
100
AcDbEntity
  8
6301665
  6
Continuous
 62
     7
100
AcDbCircle
 10
177.0234130075
 20
95.82921392
 30
0.0
 40
0.3
100
AcDbArc
 50
0.0
 51
94.7801918472
  0
ARC
  5
142
330
B5
100
AcDbEntity
  8
6301665
  6
Continuous
 62
     7
100
AcDbCircle
 10
177.0234130075
 20
95.82921392
 30
0.0
 40
0.3
100
AcDbArc
 50
265.2198081528
 51
0.0
  0
LINE
  5
143
330
B5
100
AcDbEntity
  8
6301665
  6
Continuous
 62
     7
100
AcDbLine
 10
176.9984130075
 20
97.04671392
 30
0.0
 11
177.7734130075
 21
97.04671392
 31
0.0
  0
LINE
  5
144
330
B5
100
AcDbEntity
  8
6301665
  6
Continuous
 62
     7
100
AcDbLine
 10
177.7734130075
 20
78.88271392
 30
0.0
 11
176.9984130075
 21
78.88271392
 31
0.0
  0
ARC
  5
145
330
B5
100
AcDbEntity
  8
6301665
  6
Continuous
 62
     7
100
AcDbCircle
 10
177.0234130075
 20
80.10021392
 30
0.0
 40
0.3
100
AcDbArc
 50
0.0
 51
94.7801918472
  0
ARC
  5
146
330
B5
100
AcDbEntity
  8
6301665
  6
Continuous
 62
     7
100
AcDbCircle
 10
177.0234130075
 20
80.10021392
 30
0.0
 40
0.3
100
AcDbArc
 50
265.2198081528
 51
0.0
  0
LINE
  5
147
330
B5
100
AcDbEntity
  8
6301665
  6
Continuous
 62
     7
100
AcDbLine
 10
176.9984130075
 20
81.31771392
 30
0.0
 11
177.7734130075
 21
81.31771392
 31
0.0
  0
LINE
  5
148
330
B5
100
AcDbEntity
  8
1.5M_PHV_T_LOOSE
  6
Continuous
 62
     7
100
AcDbLine
 10
98.3984130075
 20
78.60846392
 30
0.0
 11
98.3984130075
 21
97.20846392
 31
0.0
  0
LINE
  5
149
330
B5
100
AcDbEntity
  8
1.5M_PHV_T_LOOSE
  6
Continuous
 62
     7
100
AcDbLine
 10
175.3984130075
 20
78.60846392
 30
0.0
 11
98.3984130075
 21
78.60846392
 31
0.0
  0
LINE
  5
14A
330
B5
100
AcDbEntity
  8
1.5M_PHV_T_LOOSE
  6
Continuous
 62
     7
100
AcDbLine
 10
175.3984130075
 20
97.20846392
 30
0.0
 11
175.3984130075
 21
78.60846392
 31
0.0
  0
LINE
  5
14B
330
B5
100
AcDbEntity
  8
1.5M_PHV_T_LOOSE
  6
Continuous
 62
     7
100
AcDbLine
 10
98.3984130075
 20
97.20846392
 30
0.0
 11
175.3984130075
 21
97.20846392
 31
0.0
  0
LINE
  5
14C
330
B5
100
AcDbEntity
  8
1.5M_PHV_T_LOOSE
  6
Continuous
 62
     7
100
AcDbLine
 10
176.7334130075
 20
98.54346392
 30
0.0
 11
176.7334130075
 21
77.27346392
 31
0.0
  0
LINE
  5
14D
330
B5
100
AcDbEntity
  8
1.5M_PHV_T_LOOSE
  6
Continuous
 62
     7
100
AcDbLine
 10
176.7334130075
 20
77.27346392
 30
0.0
 11
176.9984130075
 21
77.00846392
 31
0.0
  0
LINE
  5
14E
330
B5
100
AcDbEntity
  8
1.5M_PHV_T_LOOSE
  6
Continuous
 62
     7
100
AcDbLine
 10
176.9984130075
 20
98.80846392
 30
0.0
 11
176.9984130075
 21
77.00846392
 31
0.0
  0
LINE
  5
14F
330
B5
100
AcDbEntity
  8
1.5M_PHV_T_LOOSE
  6
Continuous
 62
     7
100
AcDbLine
 10
176.7334130075
 20
77.27346392
 30
0.0
 11
97.0634130075
 21
77.27346392
 31
0.0
  0
LINE
  5
150
330
B5
100
AcDbEntity
  8
1.5M_PHV_T_LOOSE
  6
Continuous
 62
     7
100
AcDbLine
 10
97.0634130075
 20
77.27346392
 30
0.0
 11
96.7984130075
 21
77.00846392
 31
0.0
  0
LINE
  5
151
330
B5
100
AcDbEntity
  8
1.5M_PHV_T_LOOSE
  6
Continuous
 62
     7
100
AcDbLine
 10
176.9984130075
 20
77.00846392
 30
0.0
 11
96.7984130075
 21
77.00846392
 31
0.0
  0
LINE
  5
152
330
B5
100
AcDbEntity
  8
1.5M_PHV_T_LOOSE
  6
Continuous
 62
     7
100
AcDbLine
 10
97.0634130075
 20
98.54346392
 30
0.0
 11
176.7334130075
 21
98.54346392
 31
0.0
  0
LINE
  5
153
330
B5
100
AcDbEntity
  8
1.5M_PHV_T_LOOSE
  6
Continuous
 62
     7
100
AcDbLine
 10
176.7334130075
 20
98.54346392
 30
0.0
 11
176.9984130075
 21
98.80846392
 31
0.0
  0
LINE
  5
154
330
B5
100
AcDbEntity
  8
1.5M_PHV_T_LOOSE
  6
Continuous
 62
     7
100
AcDbLine
 10
96.7984130075
 20
98.80846392
 30
0.0
 11
176.9984130075
 21
98.80846392
 31
0.0
  0
LINE
  5
155
330
B5
100
AcDbEntity
  8
1.5M_PHV_T_LOOSE
  6
Continuous
 62
     7
100
AcDbLine
 10
97.0634130075
 20
77.27346392
 30
0.0
 11
97.0634130075
 21
98.54346392
 31
0.0
  0
LINE
  5
156
330
B5
100
AcDbEntity
  8
1.5M_PHV_T_LOOSE
  6
Continuous
 62
     7
100
AcDbLine
 10
97.0634130075
 20
98.54346392
 30
0.0
 11
96.7984130075
 21
98.80846392
 31
0.0
  0
LINE
  5
157
330
B5
100
AcDbEntity
  8
1.5M_PHV_T_LOOSE
  6
Continuous
 62
     7
100
AcDbLine
 10
96.7984130075
 20
77.00846392
 30
0.0
 11
96.7984130075
 21
98.80846392
 31
0.0
  0
LINE
  5
158
330
B5
100
AcDbEntity
  8
1.5M_T_R_LOOSE_G
  6
Continuous
 62
     7
100
AcDbLine
 10
98.5484130075
 20
80.33346392
 30
0.0
 11
98.5484130075
 21
80.00846392
 31
0.0
  0
LINE
  5
159
330
B5
100
AcDbEntity
  8
1.5M_T_R_LOOSE_G
  6
Continuous
 62
     7
100
AcDbLine
 10
175.2484130075
 20
80.33346392
 30
0.0
 11
175.2484130075
 21
80.00846392
 31
0.0
  0
LINE
  5
15A
330
B5
100
AcDbEntity
  8
1.5M_T_R_LOOSE_G
  6
Continuous
 62
     7
100
AcDbLine
 10
98.5484130075
 20
80.00846392
 30
0.0
 11
175.2484130075
 21
80.00846392
 31
0.0
  0
LINE
  5
15B
330
B5
100
AcDbEntity
  8
1.5M_T_R_LOOSE_G
  6
Continuous
 62
     7
100
AcDbLine
 10
98.5484130075
 20
80.33346392
 30
0.0
 11
175.2484130075
 21
80.33346392
 31
0.0
  0
LINE
  5
15C
330
B5
100
AcDbEntity
  8
1.5M_T_R_LOOSE_G
  6
Continuous
 62
     7
100
AcDbLine
 10
98.5484130075
 20
81.28346392
 30
0.0
 11
98.5484130075
 21
80.95846392
 31
0.0
  0
LINE
  5
15D
330
B5
100
AcDbEntity
  8
1.5M_T_R_LOOSE_G
  6
Continuous
 62
     7
100
AcDbLine
 10
175.2484130075
 20
81.28346392
 30
0.0
 11
175.2484130075
 21
80.95846392
 31
0.0
  0
LINE
  5
15E
330
B5
100
AcDbEntity
  8
1.5M_T_R_LOOSE_G
  6
Continuous
 62
     7
100
AcDbLine
 10
98.5484130075
 20
80.95846392
 30
0.0
 11
175.2484130075
 21
80.95846392
 31
0.0
  0
LINE
  5
15F
330
B5
100
AcDbEntity
  8
1.5M_T_R_LOOSE_G
  6
Continuous
 62
     7
100
AcDbLine
 10
98.5484130075
 20
81.28346392
 30
0.0
 11
175.2484130075
 21
81.28346392
 31
0.0
  0
LINE
  5
160
330
B5
100
AcDbEntity
  8
1.5M_T_R_LOOSE_G
  6
Continuous
 62
     7
100
AcDbLine
 10
98.5484130075
 20
82.23346392
 30
0.0
 11
98.5484130075
 21
81.90846392
 31
0.0
  0
LINE
  5
161
330
B5
100
AcDbEntity
  8
1.5M_T_R_LOOSE_G
  6
Continuous
 62
     7
100
AcDbLine
 10
175.2484130075
 20
82.23346392
 30
0.0
 11
175.2484130075
 21
81.90846392
 31
0.0
  0
LINE
  5
162
330
B5
100
AcDbEntity
  8
1.5M_T_R_LOOSE_G
  6
Continuous
 62
     7
100
AcDbLine
 10
98.5484130075
 20
81.90846392
 30
0.0
 11
175.2484130075
 21
81.90846392
 31
0.0
  0
LINE
  5
163
330
B5
100
AcDbEntity
  8
1.5M_T_R_LOOSE_G
  6
Continuous
 62
     7
100
AcDbLine
 10
98.5484130075
 20
82.23346392
 30
0.0
 11
175.2484130075
 21
82.23346392
 31
0.0
  0
LINE
  5
164
330
B5
100
AcDbEntity
  8
1.5M_T_R_LOOSE_G
  6
Continuous
 62
     7
100
AcDbLine
 10
98.5484130075
 20
83.18346392
 30
0.0
 11
98.5484130075
 21
82.85846392
 31
0.0
  0
LINE
  5
165
330
B5
100
AcDbEntity
  8
1.5M_T_R_LOOSE_G
  6
Continuous
 62
     7
100
AcDbLine
 10
175.2484130075
 20
83.18346392
 30
0.0
 11
175.2484130075
 21
82.85846392
 31
0.0
  0
LINE
  5
166
330
B5
100
AcDbEntity
  8
1.5M_T_R_LOOSE_G
  6
Continuous
 62
     7
100
AcDbLine
 10
98.5484130075
 20
82.85846392
 30
0.0
 11
175.2484130075
 21
82.85846392
 31
0.0
  0
LINE
  5
167
330
B5
100
AcDbEntity
  8
1.5M_T_R_LOOSE_G
  6
Continuous
 62
     7
100
AcDbLine
 10
98.5484130075
 20
83.18346392
 30
0.0
 11
175.2484130075
 21
83.18346392
 31
0.0
  0
LINE
  5
169
330
B5
100
AcDbEntity
  8
T_R_LOOSE_GRILLE
  6
Continuous
 62
     7
100
AcDbLine
 10
112.1859130075
 20
78.60846392
 30
0.0
 11
112.1859130075
 21
79.05846392
 31
0.0
  0
LINE
  5
16A
330
B5
100
AcDbEntity
  8
T_R_LOOSE_GRILLE
  6
Continuous
 62
     7
100
AcDbLine
 10
112.1859130075
 20
79.38346392
 30
0.0
 11
112.1859130075
 21
80.00846392
 31
0.0
  0
LINE
  5
16B
330
B5
100
AcDbEntity
  8
T_R_LOOSE_GRILLE
  6
Continuous
 62
     7
100
AcDbLine
 10
112.1859130075
 20
80.33346392
 30
0.0
 11
112.1859130075
 21
80.95846392
 31
0.0
  0
LINE
  5
16C
330
B5
100
AcDbEntity
  8
T_R_LOOSE_GRILLE
  6
Continuous
 62
     7
100
AcDbLine
 10
112.1859130075
 20
81.28346392
 30
0.0
 11
112.1859130075
 21
81.90846392
 31
0.0
  0
LINE
  5
16D
330
B5
100
AcDbEntity
  8
T_R_LOOSE_GRILLE
  6
Continuous
 62
     7
100
AcDbLine
 10
112.1859130075
 20
82.23346392
 30
0.0
 11
112.1859130075
 21
82.85846392
 31
0.0
  0
LINE
  5
16E
330
B5
100
AcDbEntity
  8
T_R_LOOSE_GRILLE
  6
Continuous
 62
     7
100
AcDbLine
 10
112.1859130075
 20
83.18346392
 30
0.0
 11
112.1859130075
 21
83.82096392
 31
0.0
  0
LINE
  5
16F
330
B5
100
AcDbEntity
  8
T_R_LOOSE_GRILLE
  6
Continuous
 62
     7
100
AcDbLine
 10
112.1859130075
 20
84.7398979028
 30
0.0
 11
112.1859130075
 21
84.82096392
 31
0.0
  0
LINE
  5
170
330
B5
100
AcDbEntity
  8
T_R_LOOSE_GRILLE
  6
Continuous
 62
     7
100
AcDbLine
 10
112.1859130075
 20
85.7398979028
 30
0.0
 11
112.1859130075
 21
85.82096392
 31
0.0
  0
LINE
  5
171
330
B5
100
AcDbEntity
  8
T_R_LOOSE_GRILLE
  6
Continuous
 62
     7
100
AcDbLine
 10
112.1859130075
 20
86.7398979028
 30
0.0
 11
112.1859130075
 21
86.82096392
 31
0.0
  0
LINE
  5
172
330
B5
100
AcDbEntity
  8
T_R_LOOSE_GRILLE
  6
Continuous
 62
     7
100
AcDbLine
 10
112.1859130075
 20
87.7398979028
 30
0.0
 11
112.1859130075
 21
87.82096392
 31
0.0
  0
LINE
  5
173
330
B5
100
AcDbEntity
  8
T_R_LOOSE_GRILLE
  6
Continuous
 62
     7
100
AcDbLine
 10
112.1859130075
 20
88.7398979028
 30
0.0
 11
112.1859130075
 21
88.82096392
 31
0.0
  0
LINE
  5
174
330
B5
100
AcDbEntity
  8
T_R_LOOSE_GRILLE
  6
Continuous
 62
     7
100
AcDbLine
 10
112.1859130075
 20
89.7398979028
 30
0.0
 11
112.1859130075
 21
89.82096392
 31
0.0
  0
LINE
  5
175
330
B5
100
AcDbEntity
  8
T_R_LOOSE_GRILLE
  6
Continuous
 62
     7
100
AcDbLine
 10
112.1859130075
 20
90.7398979028
 30
0.0
 11
112.1859130075
 21
90.82096392
 31
0.0
  0
LINE
  5
176
330
B5
100
AcDbEntity
  8
T_R_LOOSE_GRILLE
  6
Continuous
 62
     7
100
AcDbLine
 10
112.1859130075
 20
91.7398979028
 30
0.0
 11
112.1859130075
 21
91.82096392
 31
0.0
  0
LINE
  5
177
330
B5
100
AcDbEntity
  8
T_R_LOOSE_GRILLE
  6
Continuous
 62
     7
100
AcDbLine
 10
112.1859130075
 20
92.7398979028
 30
0.0
 11
112.1859130075
 21
92.82096392
 31
0.0
  0
LINE
  5
178
330
B5
100
AcDbEntity
  8
T_R_LOOSE_GRILLE
  6
Continuous
 62
     7
100
AcDbLine
 10
112.1859130075
 20
93.7398979028
 30
0.0
 11
112.1859130075
 21
93.82096392
 31
0.0
  0
LINE
  5
179
330
B5
100
AcDbEntity
  8
T_R_LOOSE_GRILLE
  6
Continuous
 62
     7
100
AcDbLine
 10
112.1859130075
 20
94.7398979028
 30
0.0
 11
112.1859130075
 21
94.82096392
 31
0.0
  0
LINE
  5
17A
330
B5
100
AcDbEntity
  8
T_R_LOOSE_GRILLE
  6
Continuous
 62
     7
100
AcDbLine
 10
112.1859130075
 20
95.7398979028
 30
0.0
 11
112.1859130075
 21
95.82096392
 31
0.0
  0
LINE
  5
17B
330
B5
100
AcDbEntity
  8
T_R_LOOSE_GRILLE
  6
Continuous
 62
     7
100
AcDbLine
 10
112.1859130075
 20
96.7398979028
 30
0.0
 11
112.1859130075
 21
97.20846392
 31
0.0
  0
LINE
  5
17C
330
B5
100
AcDbEntity
  8
T_R_LOOSE_GRILLE
  6
Continuous
 62
     7
100
AcDbLine
 10
111.7609130075
 20
97.20846392
 30
0.0
 11
111.7609130075
 21
96.7398979028
 31
0.0
  0
LINE
  5
17D
330
B5
100
AcDbEntity
  8
T_R_LOOSE_GRILLE
  6
Continuous
 62
     7
100
AcDbLine
 10
111.7609130075
 20
95.82096392
 30
0.0
 11
111.7609130075
 21
95.7398979028
 31
0.0
  0
LINE
  5
17E
330
B5
100
AcDbEntity
  8
T_R_LOOSE_GRILLE
  6
Continuous
 62
     7
100
AcDbLine
 10
111.7609130075
 20
94.82096392
 30
0.0
 11
111.7609130075
 21
94.7398979028
 31
0.0
  0
LINE
  5
17F
330
B5
100
AcDbEntity
  8
T_R_LOOSE_GRILLE
  6
Continuous
 62
     7
100
AcDbLine
 10
111.7609130075
 20
93.82096392
 30
0.0
 11
111.7609130075
 21
93.7398979028
 31
0.0
  0
LINE
  5
180
330
B5
100
AcDbEntity
  8
T_R_LOOSE_GRILLE
  6
Continuous
 62
     7
100
AcDbLine
 10
111.7609130075
 20
92.82096392
 30
0.0
 11
111.7609130075
 21
92.7398979028
 31
0.0
  0
LINE
  5
181
330
B5
100
AcDbEntity
  8
T_R_LOOSE_GRILLE
  6
Continuous
 62
     7
100
AcDbLine
 10
111.7609130075
 20
91.82096392
 30
0.0
 11
111.7609130075
 21
91.7398979028
 31
0.0
  0
LINE
  5
182
330
B5
100
AcDbEntity
  8
T_R_LOOSE_GRILLE
  6
Continuous
 62
     7
100
AcDbLine
 10
111.7609130075
 20
90.82096392
 30
0.0
 11
111.7609130075
 21
90.7398979028
 31
0.0
  0
LINE
  5
183
330
B5
100
AcDbEntity
  8
T_R_LOOSE_GRILLE
  6
Continuous
 62
     7
100
AcDbLine
 10
111.7609130075
 20
89.82096392
 30
0.0
 11
111.7609130075
 21
89.7398979028
 31
0.0
  0
LINE
  5
184
330
B5
100
AcDbEntity
  8
T_R_LOOSE_GRILLE
  6
Continuous
 62
     7
100
AcDbLine
 10
111.7609130075
 20
88.82096392
 30
0.0
 11
111.7609130075
 21
88.7398979028
 31
0.0
  0
LINE
  5
185
330
B5
100
AcDbEntity
  8
T_R_LOOSE_GRILLE
  6
Continuous
 62
     7
100
AcDbLine
 10
111.7609130075
 20
87.82096392
 30
0.0
 11
111.7609130075
 21
87.7398979028
 31
0.0
  0
LINE
  5
186
330
B5
100
AcDbEntity
  8
T_R_LOOSE_GRILLE
  6
Continuous
 62
     7
100
AcDbLine
 10
111.7609130075
 20
86.82096392
 30
0.0
 11
111.7609130075
 21
86.7398979028
 31
0.0
  0
LINE
  5
187
330
B5
100
AcDbEntity
  8
T_R_LOOSE_GRILLE
  6
Continuous
 62
     7
100
AcDbLine
 10
111.7609130075
 20
85.82096392
 30
0.0
 11
111.7609130075
 21
85.7398979028
 31
0.0
  0
LINE
  5
188
330
B5
100
AcDbEntity
  8
T_R_LOOSE_GRILLE
  6
Continuous
 62
     7
100
AcDbLine
 10
111.7609130075
 20
84.82096392
 30
0.0
 11
111.7609130075
 21
84.7398979028
 31
0.0
  0
LINE
  5
189
330
B5
100
AcDbEntity
  8
T_R_LOOSE_GRILLE
  6
Continuous
 62
     7
100
AcDbLine
 10
111.7609130075
 20
83.82096392
 30
0.0
 11
111.7609130075
 21
83.18346392
 31
0.0
  0
LINE
  5
18A
330
B5
100
AcDbEntity
  8
T_R_LOOSE_GRILLE
  6
Continuous
 62
     7
100
AcDbLine
 10
111.7609130075
 20
82.85846392
 30
0.0
 11
111.7609130075
 21
82.23346392
 31
0.0
  0
LINE
  5
18B
330
B5
100
AcDbEntity
  8
T_R_LOOSE_GRILLE
  6
Continuous
 62
     7
100
AcDbLine
 10
111.7609130075
 20
81.90846392
 30
0.0
 11
111.7609130075
 21
81.28346392
 31
0.0
  0
LINE
  5
18C
330
B5
100
AcDbEntity
  8
T_R_LOOSE_GRILLE
  6
Continuous
 62
     7
100
AcDbLine
 10
111.7609130075
 20
80.95846392
 30
0.0
 11
111.7609130075
 21
80.33346392
 31
0.0
  0
LINE
  5
18D
330
B5
100
AcDbEntity
  8
T_R_LOOSE_GRILLE
  6
Continuous
 62
     7
100
AcDbLine
 10
111.7609130075
 20
80.00846392
 30
0.0
 11
111.7609130075
 21
79.38346392
 31
0.0
  0
LINE
  5
18E
330
B5
100
AcDbEntity
  8
T_R_LOOSE_GRILLE
  6
Continuous
 62
     7
100
AcDbLine
 10
111.7609130075
 20
79.05846392
 30
0.0
 11
111.7609130075
 21
78.60846392
 31
0.0
  0
LINE
  5
18F
330
B5
100
AcDbEntity
  8
T_R_LOOSE_GRILLE
  6
Continuous
 62
     7
100
AcDbLine
 10
124.6609130075
 20
78.60846392
 30
0.0
 11
124.6609130075
 21
79.05846392
 31
0.0
  0
LINE
  5
190
330
B5
100
AcDbEntity
  8
T_R_LOOSE_GRILLE
  6
Continuous
 62
     7
100
AcDbLine
 10
124.6609130075
 20
79.38346392
 30
0.0
 11
124.6609130075
 21
80.00846392
 31
0.0
  0
LINE
  5
191
330
B5
100
AcDbEntity
  8
T_R_LOOSE_GRILLE
  6
Continuous
 62
     7
100
AcDbLine
 10
124.6609130075
 20
80.33346392
 30
0.0
 11
124.6609130075
 21
80.95846392
 31
0.0
  0
LINE
  5
192
330
B5
100
AcDbEntity
  8
T_R_LOOSE_GRILLE
  6
Continuous
 62
     7
100
AcDbLine
 10
124.6609130075
 20
81.28346392
 30
0.0
 11
124.6609130075
 21
81.90846392
 31
0.0
  0
LINE
  5
193
330
B5
100
AcDbEntity
  8
T_R_LOOSE_GRILLE
  6
Continuous
 62
     7
100
AcDbLine
 10
124.6609130075
 20
82.23346392
 30
0.0
 11
124.6609130075
 21
82.85846392
 31
0.0
  0
LINE
  5
194
330
B5
100
AcDbEntity
  8
T_R_LOOSE_GRILLE
  6
Continuous
 62
     7
100
AcDbLine
 10
124.6609130075
 20
83.18346392
 30
0.0
 11
124.6609130075
 21
83.82096392
 31
0.0
  0
LINE
  5
195
330
B5
100
AcDbEntity
  8
T_R_LOOSE_GRILLE
  6
Continuous
 62
     7
100
AcDbLine
 10
124.6609130075
 20
84.7398979028
 30
0.0
 11
124.6609130075
 21
84.82096392
 31
0.0
  0
LINE
  5
196
330
B5
100
AcDbEntity
  8
T_R_LOOSE_GRILLE
  6
Continuous
 62
     7
100
AcDbLine
 10
124.6609130075
 20
85.7398979028
 30
0.0
 11
124.6609130075
 21
85.82096392
 31
0.0
  0
LINE
  5
197
330
B5
100
AcDbEntity
  8
T_R_LOOSE_GRILLE
  6
Continuous
 62
     7
100
AcDbLine
 10
124.6609130075
 20
86.7398979028
 30
0.0
 11
124.6609130075
 21
86.82096392
 31
0.0
  0
LINE
  5
198
330
B5
100
AcDbEntity
  8
T_R_LOOSE_GRILLE
  6
Continuous
 62
     7
100
AcDbLine
 10
124.6609130075
 20
87.7398979028
 30
0.0
 11
124.6609130075
 21
87.82096392
 31
0.0
  0
LINE
  5
199
330
B5
100
AcDbEntity
  8
T_R_LOOSE_GRILLE
  6
Continuous
 62
     7
100
AcDbLine
 10
124.6609130075
 20
88.7398979028
 30
0.0
 11
124.6609130075
 21
88.82096392
 31
0.0
  0
LINE
  5
19A
330
B5
100
AcDbEntity
  8
T_R_LOOSE_GRILLE
  6
Continuous
 62
     7
100
AcDbLine
 10
124.6609130075
 20
89.7398979028
 30
0.0
 11
124.6609130075
 21
89.82096392
 31
0.0
  0
LINE
  5
19B
330
B5
100
AcDbEntity
  8
T_R_LOOSE_GRILLE
  6
Continuous
 62
     7
100
AcDbLine
 10
124.6609130075
 20
90.7398979028
 30
0.0
 11
124.6609130075
 21
90.82096392
 31
0.0
  0
LINE
  5
19C
330
B5
100
AcDbEntity
  8
T_R_LOOSE_GRILLE
  6
Continuous
 62
     7
100
AcDbLine
 10
124.6609130075
 20
91.7398979028
 30
0.0
 11
124.6609130075
 21
91.82096392
 31
0.0
  0
LINE
  5
19D
330
B5
100
AcDbEntity
  8
T_R_LOOSE_GRILLE
  6
Continuous
 62
     7
100
AcDbLine
 10
124.6609130075
 20
92.7398979028
 30
0.0
 11
124.6609130075
 21
92.82096392
 31
0.0
  0
LINE
  5
19E
330
B5
100
AcDbEntity
  8
T_R_LOOSE_GRILLE
  6
Continuous
 62
     7
100
AcDbLine
 10
124.6609130075
 20
93.7398979028
 30
0.0
 11
124.6609130075
 21
93.82096392
 31
0.0
  0
LINE
  5
19F
330
B5
100
AcDbEntity
  8
T_R_LOOSE_GRILLE
  6
Continuous
 62
     7
100
AcDbLine
 10
124.6609130075
 20
94.7398979028
 30
0.0
 11
124.6609130075
 21
94.82096392
 31
0.0
  0
LINE
  5
1A0
330
B5
100
AcDbEntity
  8
T_R_LOOSE_GRILLE
  6
Continuous
 62
     7
100
AcDbLine
 10
124.6609130075
 20
95.7398979028
 30
0.0
 11
124.6609130075
 21
95.82096392
 31
0.0
  0
LINE
  5
1A1
330
B5
100
AcDbEntity
  8
T_R_LOOSE_GRILLE
  6
Continuous
 62
     7
100
AcDbLine
 10
124.6609130075
 20
96.7398979028
 30
0.0
 11
124.6609130075
 21
97.20846392
 31
0.0
  0
LINE
  5
1A2
330
B5
100
AcDbEntity
  8
T_R_LOOSE_GRILLE
  6
Continuous
 62
     7
100
AcDbLine
 10
124.2359130075
 20
97.20846392
 30
0.0
 11
124.2359130075
 21
96.7398979028
 31
0.0
  0
LINE
  5
1A3
330
B5
100
AcDbEntity
  8
T_R_LOOSE_GRILLE
  6
Continuous
 62
     7
100
AcDbLine
 10
124.2359130075
 20
95.82096392
 30
0.0
 11
124.2359130075
 21
95.7398979028
 31
0.0
  0
LINE
  5
1A4
330
B5
100
AcDbEntity
  8
T_R_LOOSE_GRILLE
  6
Continuous
 62
     7
100
AcDbLine
 10
124.2359130075
 20
94.82096392
 30
0.0
 11
124.2359130075
 21
94.7398979028
 31
0.0
  0
LINE
  5
1A5
330
B5
100
AcDbEntity
  8
T_R_LOOSE_GRILLE
  6
Continuous
 62
     7
100
AcDbLine
 10
124.2359130075
 20
93.82096392
 30
0.0
 11
124.2359130075
 21
93.7398979028
 31
0.0
  0
LINE
  5
1A6
330
B5
100
AcDbEntity
  8
T_R_LOOSE_GRILLE
  6
Continuous
 62
     7
100
AcDbLine
 10
124.2359130075
 20
92.82096392
 30
0.0
 11
124.2359130075
 21
92.7398979028
 31
0.0
  0
LINE
  5
1A7
330
B5
100
AcDbEntity
  8
T_R_LOOSE_GRILLE
  6
Continuous
 62
     7
100
AcDbLine
 10
124.2359130075
 20
91.82096392
 30
0.0
 11
124.2359130075
 21
91.7398979028
 31
0.0
  0
LINE
  5
1A8
330
B5
100
AcDbEntity
  8
T_R_LOOSE_GRILLE
  6
Continuous
 62
     7
100
AcDbLine
 10
124.2359130075
 20
90.82096392
 30
0.0
 11
124.2359130075
 21
90.7398979028
 31
0.0
  0
LINE
  5
1A9
330
B5
100
AcDbEntity
  8
T_R_LOOSE_GRILLE
  6
Continuous
 62
     7
100
AcDbLine
 10
124.2359130075
 20
89.82096392
 30
0.0
 11
124.2359130075
 21
89.7398979028
 31
0.0
  0
LINE
  5
1AA
330
B5
100
AcDbEntity
  8
T_R_LOOSE_GRILLE
  6
Continuous
 62
     7
100
AcDbLine
 10
124.2359130075
 20
88.82096392
 30
0.0
 11
124.2359130075
 21
88.7398979028
 31
0.0
  0
LINE
  5
1AB
330
B5
100
AcDbEntity
  8
T_R_LOOSE_GRILLE
  6
Continuous
 62
     7
100
AcDbLine
 10
124.2359130075
 20
87.82096392
 30
0.0
 11
124.2359130075
 21
87.7398979028
 31
0.0
  0
LINE
  5
1AC
330
B5
100
AcDbEntity
  8
T_R_LOOSE_GRILLE
  6
Continuous
 62
     7
100
AcDbLine
 10
124.2359130075
 20
86.82096392
 30
0.0
 11
124.2359130075
 21
86.7398979028
 31
0.0
  0
LINE
  5
1AD
330
B5
100
AcDbEntity
  8
T_R_LOOSE_GRILLE
  6
Continuous
 62
     7
100
AcDbLine
 10
124.2359130075
 20
85.82096392
 30
0.0
 11
124.2359130075
 21
85.7398979028
 31
0.0
  0
LINE
  5
1AE
330
B5
100
AcDbEntity
  8
T_R_LOOSE_GRILLE
  6
Continuous
 62
     7
100
AcDbLine
 10
124.2359130075
 20
84.82096392
 30
0.0
 11
124.2359130075
 21
84.7398979028
 31
0.0
  0
LINE
  5
1AF
330
B5
100
AcDbEntity
  8
T_R_LOOSE_GRILLE
  6
Continuous
 62
     7
100
AcDbLine
 10
124.2359130075
 20
83.82096392
 30
0.0
 11
124.2359130075
 21
83.18346392
 31
0.0
  0
LINE
  5
1B0
330
B5
100
AcDbEntity
  8
T_R_LOOSE_GRILLE
  6
Continuous
 62
     7
100
AcDbLine
 10
124.2359130075
 20
82.85846392
 30
0.0
 11
124.2359130075
 21
82.23346392
 31
0.0
  0
LINE
  5
1B1
330
B5
100
AcDbEntity
  8
T_R_LOOSE_GRILLE
  6
Continuous
 62
     7
100
AcDbLine
 10
124.2359130075
 20
81.90846392
 30
0.0
 11
124.2359130075
 21
81.28346392
 31
0.0
  0
LINE
  5
1B2
330
B5
100
AcDbEntity
  8
T_R_LOOSE_GRILLE
  6
Continuous
 62
     7
100
AcDbLine
 10
124.2359130075
 20
80.95846392
 30
0.0
 11
124.2359130075
 21
80.33346392
 31
0.0
  0
LINE
  5
1B3
330
B5
100
AcDbEntity
  8
T_R_LOOSE_GRILLE
  6
Continuous
 62
     7
100
AcDbLine
 10
124.2359130075
 20
80.00846392
 30
0.0
 11
124.2359130075
 21
79.38346392
 31
0.0
  0
LINE
  5
1B4
330
B5
100
AcDbEntity
  8
T_R_LOOSE_GRILLE
  6
Continuous
 62
     7
100
AcDbLine
 10
124.2359130075
 20
79.05846392
 30
0.0
 11
124.2359130075
 21
78.60846392
 31
0.0
  0
LINE
  5
1B5
330
B5
100
AcDbEntity
  8
T_R_LOOSE_GRILLE
  6
Continuous
 62
     7
100
AcDbLine
 10
137.1359130075
 20
78.60846392
 30
0.0
 11
137.1359130075
 21
79.05846392
 31
0.0
  0
LINE
  5
1B6
330
B5
100
AcDbEntity
  8
T_R_LOOSE_GRILLE
  6
Continuous
 62
     7
100
AcDbLine
 10
137.1359130075
 20
79.38346392
 30
0.0
 11
137.1359130075
 21
80.00846392
 31
0.0
  0
LINE
  5
1B7
330
B5
100
AcDbEntity
  8
T_R_LOOSE_GRILLE
  6
Continuous
 62
     7
100
AcDbLine
 10
137.1359130075
 20
80.33346392
 30
0.0
 11
137.1359130075
 21
80.95846392
 31
0.0
  0
LINE
  5
1B8
330
B5
100
AcDbEntity
  8
T_R_LOOSE_GRILLE
  6
Continuous
 62
     7
100
AcDbLine
 10
137.1359130075
 20
81.28346392
 30
0.0
 11
137.1359130075
 21
81.90846392
 31
0.0
  0
LINE
  5
1B9
330
B5
100
AcDbEntity
  8
T_R_LOOSE_GRILLE
  6
Continuous
 62
     7
100
AcDbLine
 10
137.1359130075
 20
82.23346392
 30
0.0
 11
137.1359130075
 21
82.85846392
 31
0.0
  0
LINE
  5
1BA
330
B5
100
AcDbEntity
  8
T_R_LOOSE_GRILLE
  6
Continuous
 62
     7
100
AcDbLine
 10
137.1359130075
 20
83.18346392
 30
0.0
 11
137.1359130075
 21
83.82096392
 31
0.0
  0
LINE
  5
1BB
330
B5
100
AcDbEntity
  8
T_R_LOOSE_GRILLE
  6
Continuous
 62
     7
100
AcDbLine
 10
137.1359130075
 20
84.7398979028
 30
0.0
 11
137.1359130075
 21
84.82096392
 31
0.0
  0
LINE
  5
1BC
330
B5
100
AcDbEntity
  8
T_R_LOOSE_GRILLE
  6
Continuous
 62
     7
100
AcDbLine
 10
137.1359130075
 20
85.7398979028
 30
0.0
 11
137.1359130075
 21
85.82096392
 31
0.0
  0
LINE
  5
1BD
330
B5
100
AcDbEntity
  8
T_R_LOOSE_GRILLE
  6
Continuous
 62
     7
100
AcDbLine
 10
137.1359130075
 20
86.7398979028
 30
0.0
 11
137.1359130075
 21
86.82096392
 31
0.0
  0
LINE
  5
1BE
330
B5
100
AcDbEntity
  8
T_R_LOOSE_GRILLE
  6
Continuous
 62
     7
100
AcDbLine
 10
137.1359130075
 20
87.7398979028
 30
0.0
 11
137.1359130075
 21
87.82096392
 31
0.0
  0
LINE
  5
1BF
330
B5
100
AcDbEntity
  8
T_R_LOOSE_GRILLE
  6
Continuous
 62
     7
100
AcDbLine
 10
137.1359130075
 20
88.7398979028
 30
0.0
 11
137.1359130075
 21
88.82096392
 31
0.0
  0
LINE
  5
1C0
330
B5
100
AcDbEntity
  8
T_R_LOOSE_GRILLE
  6
Continuous
 62
     7
100
AcDbLine
 10
137.1359130075
 20
89.7398979028
 30
0.0
 11
137.1359130075
 21
89.82096392
 31
0.0
  0
LINE
  5
1C1
330
B5
100
AcDbEntity
  8
T_R_LOOSE_GRILLE
  6
Continuous
 62
     7
100
AcDbLine
 10
137.1359130075
 20
90.7398979028
 30
0.0
 11
137.1359130075
 21
90.82096392
 31
0.0
  0
LINE
  5
1C2
330
B5
100
AcDbEntity
  8
T_R_LOOSE_GRILLE
  6
Continuous
 62
     7
100
AcDbLine
 10
137.1359130075
 20
91.7398979028
 30
0.0
 11
137.1359130075
 21
91.82096392
 31
0.0
  0
LINE
  5
1C3
330
B5
100
AcDbEntity
  8
T_R_LOOSE_GRILLE
  6
Continuous
 62
     7
100
AcDbLine
 10
137.1359130075
 20
92.7398979028
 30
0.0
 11
137.1359130075
 21
92.82096392
 31
0.0
  0
LINE
  5
1C4
330
B5
100
AcDbEntity
  8
T_R_LOOSE_GRILLE
  6
Continuous
 62
     7
100
AcDbLine
 10
137.1359130075
 20
93.7398979028
 30
0.0
 11
137.1359130075
 21
93.82096392
 31
0.0
  0
LINE
  5
1C5
330
B5
100
AcDbEntity
  8
T_R_LOOSE_GRILLE
  6
Continuous
 62
     7
100
AcDbLine
 10
137.1359130075
 20
94.7398979028
 30
0.0
 11
137.1359130075
 21
94.82096392
 31
0.0
  0
LINE
  5
1C6
330
B5
100
AcDbEntity
  8
T_R_LOOSE_GRILLE
  6
Continuous
 62
     7
100
AcDbLine
 10
137.1359130075
 20
95.7398979028
 30
0.0
 11
137.1359130075
 21
95.82096392
 31
0.0
  0
LINE
  5
1C7
330
B5
100
AcDbEntity
  8
T_R_LOOSE_GRILLE
  6
Continuous
 62
     7
100
AcDbLine
 10
137.1359130075
 20
96.7398979028
 30
0.0
 11
137.1359130075
 21
97.20846392
 31
0.0
  0
LINE
  5
1C8
330
B5
100
AcDbEntity
  8
T_R_LOOSE_GRILLE
  6
Continuous
 62
     7
100
AcDbLine
 10
136.7109130075
 20
97.20846392
 30
0.0
 11
136.7109130075
 21
96.7398979028
 31
0.0
  0
LINE
  5
1C9
330
B5
100
AcDbEntity
  8
T_R_LOOSE_GRILLE
  6
Continuous
 62
     7
100
AcDbLine
 10
136.7109130075
 20
95.82096392
 30
0.0
 11
136.7109130075
 21
95.7398979028
 31
0.0
  0
LINE
  5
1CA
330
B5
100
AcDbEntity
  8
T_R_LOOSE_GRILLE
  6
Continuous
 62
     7
100
AcDbLine
 10
136.7109130075
 20
94.82096392
 30
0.0
 11
136.7109130075
 21
94.7398979028
 31
0.0
  0
LINE
  5
1CB
330
B5
100
AcDbEntity
  8
T_R_LOOSE_GRILLE
  6
Continuous
 62
     7
100
AcDbLine
 10
136.7109130075
 20
93.82096392
 30
0.0
 11
136.7109130075
 21
93.7398979028
 31
0.0
  0
LINE
  5
1CC
330
B5
100
AcDbEntity
  8
T_R_LOOSE_GRILLE
  6
Continuous
 62
     7
100
AcDbLine
 10
136.7109130075
 20
92.82096392
 30
0.0
 11
136.7109130075
 21
92.7398979028
 31
0.0
  0
LINE
  5
1CD
330
B5
100
AcDbEntity
  8
T_R_LOOSE_GRILLE
  6
Continuous
 62
     7
100
AcDbLine
 10
136.7109130075
 20
91.82096392
 30
0.0
 11
136.7109130075
 21
91.7398979028
 31
0.0
  0
LINE
  5
1CE
330
B5
100
AcDbEntity
  8
T_R_LOOSE_GRILLE
  6
Continuous
 62
     7
100
AcDbLine
 10
136.7109130075
 20
90.82096392
 30
0.0
 11
136.7109130075
 21
90.7398979028
 31
0.0
  0
LINE
  5
1CF
330
B5
100
AcDbEntity
  8
T_R_LOOSE_GRILLE
  6
Continuous
 62
     7
100
AcDbLine
 10
136.7109130075
 20
89.82096392
 30
0.0
 11
136.7109130075
 21
89.7398979028
 31
0.0
  0
LINE
  5
1D0
330
B5
100
AcDbEntity
  8
T_R_LOOSE_GRILLE
  6
Continuous
 62
     7
100
AcDbLine
 10
136.7109130075
 20
88.82096392
 30
0.0
 11
136.7109130075
 21
88.7398979028
 31
0.0
  0
LINE
  5
1D1
330
B5
100
AcDbEntity
  8
T_R_LOOSE_GRILLE
  6
Continuous
 62
     7
100
AcDbLine
 10
136.7109130075
 20
87.82096392
 30
0.0
 11
136.7109130075
 21
87.7398979028
 31
0.0
  0
LINE
  5
1D2
330
B5
100
AcDbEntity
  8
T_R_LOOSE_GRILLE
  6
Continuous
 62
     7
100
AcDbLine
 10
136.7109130075
 20
86.82096392
 30
0.0
 11
136.7109130075
 21
86.7398979028
 31
0.0
  0
LINE
  5
1D3
330
B5
100
AcDbEntity
  8
T_R_LOOSE_GRILLE
  6
Continuous
 62
     7
100
AcDbLine
 10
136.7109130075
 20
85.82096392
 30
0.0
 11
136.7109130075
 21
85.7398979028
 31
0.0
  0
LINE
  5
1D4
330
B5
100
AcDbEntity
  8
T_R_LOOSE_GRILLE
  6
Continuous
 62
     7
100
AcDbLine
 10
136.7109130075
 20
84.82096392
 30
0.0
 11
136.7109130075
 21
84.7398979028
 31
0.0
  0
LINE
  5
1D5
330
B5
100
AcDbEntity
  8
T_R_LOOSE_GRILLE
  6
Continuous
 62
     7
100
AcDbLine
 10
136.7109130075
 20
83.82096392
 30
0.0
 11
136.7109130075
 21
83.18346392
 31
0.0
  0
LINE
  5
1D6
330
B5
100
AcDbEntity
  8
T_R_LOOSE_GRILLE
  6
Continuous
 62
     7
100
AcDbLine
 10
136.7109130075
 20
82.85846392
 30
0.0
 11
136.7109130075
 21
82.23346392
 31
0.0
  0
LINE
  5
1D7
330
B5
100
AcDbEntity
  8
T_R_LOOSE_GRILLE
  6
Continuous
 62
     7
100
AcDbLine
 10
136.7109130075
 20
81.90846392
 30
0.0
 11
136.7109130075
 21
81.28346392
 31
0.0
  0
LINE
  5
1D8
330
B5
100
AcDbEntity
  8
T_R_LOOSE_GRILLE
  6
Continuous
 62
     7
100
AcDbLine
 10
136.7109130075
 20
80.95846392
 30
0.0
 11
136.7109130075
 21
80.33346392
 31
0.0
  0
LINE
  5
1D9
330
B5
100
AcDbEntity
  8
T_R_LOOSE_GRILLE
  6
Continuous
 62
     7
100
AcDbLine
 10
136.7109130075
 20
80.00846392
 30
0.0
 11
136.7109130075
 21
79.38346392
 31
0.0
  0
LINE
  5
1DA
330
B5
100
AcDbEntity
  8
T_R_LOOSE_GRILLE
  6
Continuous
 62
     7
100
AcDbLine
 10
136.7109130075
 20
79.05846392
 30
0.0
 11
136.7109130075
 21
78.60846392
 31
0.0
  0
LINE
  5
1DB
330
B5
100
AcDbEntity
  8
T_R_LOOSE_GRILLE
  6
Continuous
 62
     7
100
AcDbLine
 10
149.6109130075
 20
78.60846392
 30
0.0
 11
149.6109130075
 21
79.05846392
 31
0.0
  0
LINE
  5
1DC
330
B5
100
AcDbEntity
  8
T_R_LOOSE_GRILLE
  6
Continuous
 62
     7
100
AcDbLine
 10
149.6109130075
 20
79.38346392
 30
0.0
 11
149.6109130075
 21
80.00846392
 31
0.0
  0
LINE
  5
1DD
330
B5
100
AcDbEntity
  8
T_R_LOOSE_GRILLE
  6
Continuous
 62
     7
100
AcDbLine
 10
149.6109130075
 20
80.33346392
 30
0.0
 11
149.6109130075
 21
80.95846392
 31
0.0
  0
LINE
  5
1DE
330
B5
100
AcDbEntity
  8
T_R_LOOSE_GRILLE
  6
Continuous
 62
     7
100
AcDbLine
 10
149.6109130075
 20
81.28346392
 30
0.0
 11
149.6109130075
 21
81.90846392
 31
0.0
  0
LINE
  5
1DF
330
B5
100
AcDbEntity
  8
T_R_LOOSE_GRILLE
  6
Continuous
 62
     7
100
AcDbLine
 10
149.6109130075
 20
82.23346392
 30
0.0
 11
149.6109130075
 21
82.85846392
 31
0.0
  0
LINE
  5
1E0
330
B5
100
AcDbEntity
  8
T_R_LOOSE_GRILLE
  6
Continuous
 62
     7
100
AcDbLine
 10
149.6109130075
 20
83.18346392
 30
0.0
 11
149.6109130075
 21
83.82096392
 31
0.0
  0
LINE
  5
1E1
330
B5
100
AcDbEntity
  8
T_R_LOOSE_GRILLE
  6
Continuous
 62
     7
100
AcDbLine
 10
149.6109130075
 20
84.7398979028
 30
0.0
 11
149.6109130075
 21
84.82096392
 31
0.0
  0
LINE
  5
1E2
330
B5
100
AcDbEntity
  8
T_R_LOOSE_GRILLE
  6
Continuous
 62
     7
100
AcDbLine
 10
149.6109130075
 20
85.7398979028
 30
0.0
 11
149.6109130075
 21
85.82096392
 31
0.0
  0
LINE
  5
1E3
330
B5
100
AcDbEntity
  8
T_R_LOOSE_GRILLE
  6
Continuous
 62
     7
100
AcDbLine
 10
149.6109130075
 20
86.7398979028
 30
0.0
 11
149.6109130075
 21
86.82096392
 31
0.0
  0
LINE
  5
1E4
330
B5
100
AcDbEntity
  8
T_R_LOOSE_GRILLE
  6
Continuous
 62
     7
100
AcDbLine
 10
149.6109130075
 20
87.7398979028
 30
0.0
 11
149.6109130075
 21
87.82096392
 31
0.0
  0
LINE
  5
1E5
330
B5
100
AcDbEntity
  8
T_R_LOOSE_GRILLE
  6
Continuous
 62
     7
100
AcDbLine
 10
149.6109130075
 20
88.7398979028
 30
0.0
 11
149.6109130075
 21
88.82096392
 31
0.0
  0
LINE
  5
1E6
330
B5
100
AcDbEntity
  8
T_R_LOOSE_GRILLE
  6
Continuous
 62
     7
100
AcDbLine
 10
149.6109130075
 20
89.7398979028
 30
0.0
 11
149.6109130075
 21
89.82096392
 31
0.0
  0
LINE
  5
1E7
330
B5
100
AcDbEntity
  8
T_R_LOOSE_GRILLE
  6
Continuous
 62
     7
100
AcDbLine
 10
149.6109130075
 20
90.7398979028
 30
0.0
 11
149.6109130075
 21
90.82096392
 31
0.0
  0
LINE
  5
1E8
330
B5
100
AcDbEntity
  8
T_R_LOOSE_GRILLE
  6
Continuous
 62
     7
100
AcDbLine
 10
149.6109130075
 20
91.7398979028
 30
0.0
 11
149.6109130075
 21
91.82096392
 31
0.0
  0
LINE
  5
1E9
330
B5
100
AcDbEntity
  8
T_R_LOOSE_GRILLE
  6
Continuous
 62
     7
100
AcDbLine
 10
149.6109130075
 20
92.7398979028
 30
0.0
 11
149.6109130075
 21
92.82096392
 31
0.0
  0
LINE
  5
1EA
330
B5
100
AcDbEntity
  8
T_R_LOOSE_GRILLE
  6
Continuous
 62
     7
100
AcDbLine
 10
149.6109130075
 20
93.7398979028
 30
0.0
 11
149.6109130075
 21
93.82096392
 31
0.0
  0
LINE
  5
1EB
330
B5
100
AcDbEntity
  8
T_R_LOOSE_GRILLE
  6
Continuous
 62
     7
100
AcDbLine
 10
149.6109130075
 20
94.7398979028
 30
0.0
 11
149.6109130075
 21
94.82096392
 31
0.0
  0
LINE
  5
1EC
330
B5
100
AcDbEntity
  8
T_R_LOOSE_GRILLE
  6
Continuous
 62
     7
100
AcDbLine
 10
149.6109130075
 20
95.7398979028
 30
0.0
 11
149.6109130075
 21
95.82096392
 31
0.0
  0
LINE
  5
1ED
330
B5
100
AcDbEntity
  8
T_R_LOOSE_GRILLE
  6
Continuous
 62
     7
100
AcDbLine
 10
149.6109130075
 20
96.7398979028
 30
0.0
 11
149.6109130075
 21
97.20846392
 31
0.0
  0
LINE
  5
1EE
330
B5
100
AcDbEntity
  8
T_R_LOOSE_GRILLE
  6
Continuous
 62
     7
100
AcDbLine
 10
149.1859130075
 20
97.20846392
 30
0.0
 11
149.1859130075
 21
96.7398979028
 31
0.0
  0
LINE
  5
1EF
330
B5
100
AcDbEntity
  8
T_R_LOOSE_GRILLE
  6
Continuous
 62
     7
100
AcDbLine
 10
149.1859130075
 20
95.82096392
 30
0.0
 11
149.1859130075
 21
95.7398979028
 31
0.0
  0
LINE
  5
1F0
330
B5
100
AcDbEntity
  8
T_R_LOOSE_GRILLE
  6
Continuous
 62
     7
100
AcDbLine
 10
149.1859130075
 20
94.82096392
 30
0.0
 11
149.1859130075
 21
94.7398979028
 31
0.0
  0
LINE
  5
1F1
330
B5
100
AcDbEntity
  8
T_R_LOOSE_GRILLE
  6
Continuous
 62
     7
100
AcDbLine
 10
149.1859130075
 20
93.82096392
 30
0.0
 11
149.1859130075
 21
93.7398979028
 31
0.0
  0
LINE
  5
1F2
330
B5
100
AcDbEntity
  8
T_R_LOOSE_GRILLE
  6
Continuous
 62
     7
100
AcDbLine
 10
149.1859130075
 20
92.82096392
 30
0.0
 11
149.1859130075
 21
92.7398979028
 31
0.0
  0
LINE
  5
1F3
330
B5
100
AcDbEntity
  8
T_R_LOOSE_GRILLE
  6
Continuous
 62
     7
100
AcDbLine
 10
149.1859130075
 20
91.82096392
 30
0.0
 11
149.1859130075
 21
91.7398979028
 31
0.0
  0
LINE
  5
1F4
330
B5
100
AcDbEntity
  8
T_R_LOOSE_GRILLE
  6
Continuous
 62
     7
100
AcDbLine
 10
149.1859130075
 20
90.82096392
 30
0.0
 11
149.1859130075
 21
90.7398979028
 31
0.0
  0
LINE
  5
1F5
330
B5
100
AcDbEntity
  8
T_R_LOOSE_GRILLE
  6
Continuous
 62
     7
100
AcDbLine
 10
149.1859130075
 20
89.82096392
 30
0.0
 11
149.1859130075
 21
89.7398979028
 31
0.0
  0
LINE
  5
1F6
330
B5
100
AcDbEntity
  8
T_R_LOOSE_GRILLE
  6
Continuous
 62
     7
100
AcDbLine
 10
149.1859130075
 20
88.82096392
 30
0.0
 11
149.1859130075
 21
88.7398979028
 31
0.0
  0
LINE
  5
1F7
330
B5
100
AcDbEntity
  8
T_R_LOOSE_GRILLE
  6
Continuous
 62
     7
100
AcDbLine
 10
149.1859130075
 20
87.82096392
 30
0.0
 11
149.1859130075
 21
87.7398979028
 31
0.0
  0
LINE
  5
1F8
330
B5
100
AcDbEntity
  8
T_R_LOOSE_GRILLE
  6
Continuous
 62
     7
100
AcDbLine
 10
149.1859130075
 20
86.82096392
 30
0.0
 11
149.1859130075
 21
86.7398979028
 31
0.0
  0
LINE
  5
1F9
330
B5
100
AcDbEntity
  8
T_R_LOOSE_GRILLE
  6
Continuous
 62
     7
100
AcDbLine
 10
149.1859130075
 20
85.82096392
 30
0.0
 11
149.1859130075
 21
85.7398979028
 31
0.0
  0
LINE
  5
1FA
330
B5
100
AcDbEntity
  8
T_R_LOOSE_GRILLE
  6
Continuous
 62
     7
100
AcDbLine
 10
149.1859130075
 20
84.82096392
 30
0.0
 11
149.1859130075
 21
84.7398979028
 31
0.0
  0
LINE
  5
1FB
330
B5
100
AcDbEntity
  8
T_R_LOOSE_GRILLE
  6
Continuous
 62
     7
100
AcDbLine
 10
149.1859130075
 20
83.82096392
 30
0.0
 11
149.1859130075
 21
83.18346392
 31
0.0
  0
LINE
  5
1FC
330
B5
100
AcDbEntity
  8
T_R_LOOSE_GRILLE
  6
Continuous
 62
     7
100
AcDbLine
 10
149.1859130075
 20
82.85846392
 30
0.0
 11
149.1859130075
 21
82.23346392
 31
0.0
  0
LINE
  5
1FD
330
B5
100
AcDbEntity
  8
T_R_LOOSE_GRILLE
  6
Continuous
 62
     7
100
AcDbLine
 10
149.1859130075
 20
81.90846392
 30
0.0
 11
149.1859130075
 21
81.28346392
 31
0.0
  0
LINE
  5
1FE
330
B5
100
AcDbEntity
  8
T_R_LOOSE_GRILLE
  6
Continuous
 62
     7
100
AcDbLine
 10
149.1859130075
 20
80.95846392
 30
0.0
 11
149.1859130075
 21
80.33346392
 31
0.0
  0
LINE
  5
1FF
330
B5
100
AcDbEntity
  8
T_R_LOOSE_GRILLE
  6
Continuous
 62
     7
100
AcDbLine
 10
149.1859130075
 20
80.00846392
 30
0.0
 11
149.1859130075
 21
79.38346392
 31
0.0
  0
LINE
  5
200
330
B5
100
AcDbEntity
  8
T_R_LOOSE_GRILLE
  6
Continuous
 62
     7
100
AcDbLine
 10
149.1859130075
 20
79.05846392
 30
0.0
 11
149.1859130075
 21
78.60846392
 31
0.0
  0
LINE
  5
201
330
B5
100
AcDbEntity
  8
T_R_LOOSE_GRILLE
  6
Continuous
 62
     7
100
AcDbLine
 10
162.0859130075
 20
78.60846392
 30
0.0
 11
162.0859130075
 21
79.05846392
 31
0.0
  0
LINE
  5
202
330
B5
100
AcDbEntity
  8
T_R_LOOSE_GRILLE
  6
Continuous
 62
     7
100
AcDbLine
 10
162.0859130075
 20
79.38346392
 30
0.0
 11
162.0859130075
 21
80.00846392
 31
0.0
  0
LINE
  5
203
330
B5
100
AcDbEntity
  8
T_R_LOOSE_GRILLE
  6
Continuous
 62
     7
100
AcDbLine
 10
162.0859130075
 20
80.33346392
 30
0.0
 11
162.0859130075
 21
80.95846392
 31
0.0
  0
LINE
  5
204
330
B5
100
AcDbEntity
  8
T_R_LOOSE_GRILLE
  6
Continuous
 62
     7
100
AcDbLine
 10
162.0859130075
 20
81.28346392
 30
0.0
 11
162.0859130075
 21
81.90846392
 31
0.0
  0
LINE
  5
205
330
B5
100
AcDbEntity
  8
T_R_LOOSE_GRILLE
  6
Continuous
 62
     7
100
AcDbLine
 10
162.0859130075
 20
82.23346392
 30
0.0
 11
162.0859130075
 21
82.85846392
 31
0.0
  0
LINE
  5
206
330
B5
100
AcDbEntity
  8
T_R_LOOSE_GRILLE
  6
Continuous
 62
     7
100
AcDbLine
 10
162.0859130075
 20
83.18346392
 30
0.0
 11
162.0859130075
 21
83.82096392
 31
0.0
  0
LINE
  5
207
330
B5
100
AcDbEntity
  8
T_R_LOOSE_GRILLE
  6
Continuous
 62
     7
100
AcDbLine
 10
162.0859130075
 20
84.7398979028
 30
0.0
 11
162.0859130075
 21
84.82096392
 31
0.0
  0
LINE
  5
208
330
B5
100
AcDbEntity
  8
T_R_LOOSE_GRILLE
  6
Continuous
 62
     7
100
AcDbLine
 10
162.0859130075
 20
85.7398979028
 30
0.0
 11
162.0859130075
 21
85.82096392
 31
0.0
  0
LINE
  5
209
330
B5
100
AcDbEntity
  8
T_R_LOOSE_GRILLE
  6
Continuous
 62
     7
100
AcDbLine
 10
162.0859130075
 20
86.7398979028
 30
0.0
 11
162.0859130075
 21
86.82096392
 31
0.0
  0
LINE
  5
20A
330
B5
100
AcDbEntity
  8
T_R_LOOSE_GRILLE
  6
Continuous
 62
     7
100
AcDbLine
 10
162.0859130075
 20
87.7398979028
 30
0.0
 11
162.0859130075
 21
87.82096392
 31
0.0
  0
LINE
  5
20B
330
B5
100
AcDbEntity
  8
T_R_LOOSE_GRILLE
  6
Continuous
 62
     7
100
AcDbLine
 10
162.0859130075
 20
88.7398979028
 30
0.0
 11
162.0859130075
 21
88.82096392
 31
0.0
  0
LINE
  5
20C
330
B5
100
AcDbEntity
  8
T_R_LOOSE_GRILLE
  6
Continuous
 62
     7
100
AcDbLine
 10
162.0859130075
 20
89.7398979028
 30
0.0
 11
162.0859130075
 21
89.82096392
 31
0.0
  0
LINE
  5
20D
330
B5
100
AcDbEntity
  8
T_R_LOOSE_GRILLE
  6
Continuous
 62
     7
100
AcDbLine
 10
162.0859130075
 20
90.7398979028
 30
0.0
 11
162.0859130075
 21
90.82096392
 31
0.0
  0
LINE
  5
20E
330
B5
100
AcDbEntity
  8
T_R_LOOSE_GRILLE
  6
Continuous
 62
     7
100
AcDbLine
 10
162.0859130075
 20
91.7398979028
 30
0.0
 11
162.0859130075
 21
91.82096392
 31
0.0
  0
LINE
  5
20F
330
B5
100
AcDbEntity
  8
T_R_LOOSE_GRILLE
  6
Continuous
 62
     7
100
AcDbLine
 10
162.0859130075
 20
92.7398979028
 30
0.0
 11
162.0859130075
 21
92.82096392
 31
0.0
  0
LINE
  5
210
330
B5
100
AcDbEntity
  8
T_R_LOOSE_GRILLE
  6
Continuous
 62
     7
100
AcDbLine
 10
162.0859130075
 20
93.7398979028
 30
0.0
 11
162.0859130075
 21
93.82096392
 31
0.0
  0
LINE
  5
211
330
B5
100
AcDbEntity
  8
T_R_LOOSE_GRILLE
  6
Continuous
 62
     7
100
AcDbLine
 10
162.0859130075
 20
94.7398979028
 30
0.0
 11
162.0859130075
 21
94.82096392
 31
0.0
  0
LINE
  5
212
330
B5
100
AcDbEntity
  8
T_R_LOOSE_GRILLE
  6
Continuous
 62
     7
100
AcDbLine
 10
162.0859130075
 20
95.7398979028
 30
0.0
 11
162.0859130075
 21
95.82096392
 31
0.0
  0
LINE
  5
213
330
B5
100
AcDbEntity
  8
T_R_LOOSE_GRILLE
  6
Continuous
 62
     7
100
AcDbLine
 10
162.0859130075
 20
96.7398979028
 30
0.0
 11
162.0859130075
 21
97.20846392
 31
0.0
  0
LINE
  5
214
330
B5
100
AcDbEntity
  8
T_R_LOOSE_GRILLE
  6
Continuous
 62
     7
100
AcDbLine
 10
161.6609130075
 20
97.20846392
 30
0.0
 11
161.6609130075
 21
96.7398979028
 31
0.0
  0
LINE
  5
215
330
B5
100
AcDbEntity
  8
T_R_LOOSE_GRILLE
  6
Continuous
 62
     7
100
AcDbLine
 10
161.6609130075
 20
95.82096392
 30
0.0
 11
161.6609130075
 21
95.7398979028
 31
0.0
  0
LINE
  5
216
330
B5
100
AcDbEntity
  8
T_R_LOOSE_GRILLE
  6
Continuous
 62
     7
100
AcDbLine
 10
161.6609130075
 20
94.82096392
 30
0.0
 11
161.6609130075
 21
94.7398979028
 31
0.0
  0
LINE
  5
217
330
B5
100
AcDbEntity
  8
T_R_LOOSE_GRILLE
  6
Continuous
 62
     7
100
AcDbLine
 10
161.6609130075
 20
93.82096392
 30
0.0
 11
161.6609130075
 21
93.7398979028
 31
0.0
  0
LINE
  5
218
330
B5
100
AcDbEntity
  8
T_R_LOOSE_GRILLE
  6
Continuous
 62
     7
100
AcDbLine
 10
161.6609130075
 20
92.82096392
 30
0.0
 11
161.6609130075
 21
92.7398979028
 31
0.0
  0
LINE
  5
219
330
B5
100
AcDbEntity
  8
T_R_LOOSE_GRILLE
  6
Continuous
 62
     7
100
AcDbLine
 10
161.6609130075
 20
91.82096392
 30
0.0
 11
161.6609130075
 21
91.7398979028
 31
0.0
  0
LINE
  5
21A
330
B5
100
AcDbEntity
  8
T_R_LOOSE_GRILLE
  6
Continuous
 62
     7
100
AcDbLine
 10
161.6609130075
 20
90.82096392
 30
0.0
 11
161.6609130075
 21
90.7398979028
 31
0.0
  0
LINE
  5
21B
330
B5
100
AcDbEntity
  8
T_R_LOOSE_GRILLE
  6
Continuous
 62
     7
100
AcDbLine
 10
161.6609130075
 20
89.82096392
 30
0.0
 11
161.6609130075
 21
89.7398979028
 31
0.0
  0
LINE
  5
21C
330
B5
100
AcDbEntity
  8
T_R_LOOSE_GRILLE
  6
Continuous
 62
     7
100
AcDbLine
 10
161.6609130075
 20
88.82096392
 30
0.0
 11
161.6609130075
 21
88.7398979028
 31
0.0
  0
LINE
  5
21D
330
B5
100
AcDbEntity
  8
T_R_LOOSE_GRILLE
  6
Continuous
 62
     7
100
AcDbLine
 10
161.6609130075
 20
87.82096392
 30
0.0
 11
161.6609130075
 21
87.7398979028
 31
0.0
  0
LINE
  5
21E
330
B5
100
AcDbEntity
  8
T_R_LOOSE_GRILLE
  6
Continuous
 62
     7
100
AcDbLine
 10
161.6609130075
 20
86.82096392
 30
0.0
 11
161.6609130075
 21
86.7398979028
 31
0.0
  0
LINE
  5
21F
330
B5
100
AcDbEntity
  8
T_R_LOOSE_GRILLE
  6
Continuous
 62
     7
100
AcDbLine
 10
161.6609130075
 20
85.82096392
 30
0.0
 11
161.6609130075
 21
85.7398979028
 31
0.0
  0
LINE
  5
220
330
B5
100
AcDbEntity
  8
T_R_LOOSE_GRILLE
  6
Continuous
 62
     7
100
AcDbLine
 10
161.6609130075
 20
84.82096392
 30
0.0
 11
161.6609130075
 21
84.7398979028
 31
0.0
  0
LINE
  5
221
330
B5
100
AcDbEntity
  8
T_R_LOOSE_GRILLE
  6
Continuous
 62
     7
100
AcDbLine
 10
161.6609130075
 20
83.82096392
 30
0.0
 11
161.6609130075
 21
83.18346392
 31
0.0
  0
LINE
  5
222
330
B5
100
AcDbEntity
  8
T_R_LOOSE_GRILLE
  6
Continuous
 62
     7
100
AcDbLine
 10
161.6609130075
 20
82.85846392
 30
0.0
 11
161.6609130075
 21
82.23346392
 31
0.0
  0
LINE
  5
223
330
B5
100
AcDbEntity
  8
T_R_LOOSE_GRILLE
  6
Continuous
 62
     7
100
AcDbLine
 10
161.6609130075
 20
81.90846392
 30
0.0
 11
161.6609130075
 21
81.28346392
 31
0.0
  0
LINE
  5
224
330
B5
100
AcDbEntity
  8
T_R_LOOSE_GRILLE
  6
Continuous
 62
     7
100
AcDbLine
 10
161.6609130075
 20
80.95846392
 30
0.0
 11
161.6609130075
 21
80.33346392
 31
0.0
  0
LINE
  5
225
330
B5
100
AcDbEntity
  8
T_R_LOOSE_GRILLE
  6
Continuous
 62
     7
100
AcDbLine
 10
161.6609130075
 20
80.00846392
 30
0.0
 11
161.6609130075
 21
79.38346392
 31
0.0
  0
LINE
  5
226
330
B5
100
AcDbEntity
  8
T_R_LOOSE_GRILLE
  6
Continuous
 62
     7
100
AcDbLine
 10
161.6609130075
 20
79.05846392
 30
0.0
 11
161.6609130075
 21
78.60846392
 31
0.0
  0
LINE
  5
227
330
B5
100
AcDbEntity
  8
T_R_LOOSE_GRILLE
  6
Continuous
 62
     7
100
AcDbLine
 10
174.5609130075
 20
78.60846392
 30
0.0
 11
174.5609130075
 21
79.05846392
 31
0.0
  0
LINE
  5
228
330
B5
100
AcDbEntity
  8
T_R_LOOSE_GRILLE
  6
Continuous
 62
     7
100
AcDbLine
 10
174.5609130075
 20
79.38346392
 30
0.0
 11
174.5609130075
 21
80.00846392
 31
0.0
  0
LINE
  5
229
330
B5
100
AcDbEntity
  8
T_R_LOOSE_GRILLE
  6
Continuous
 62
     7
100
AcDbLine
 10
174.5609130075
 20
80.33346392
 30
0.0
 11
174.5609130075
 21
80.95846392
 31
0.0
  0
LINE
  5
22A
330
B5
100
AcDbEntity
  8
T_R_LOOSE_GRILLE
  6
Continuous
 62
     7
100
AcDbLine
 10
174.5609130075
 20
81.28346392
 30
0.0
 11
174.5609130075
 21
81.90846392
 31
0.0
  0
LINE
  5
22B
330
B5
100
AcDbEntity
  8
T_R_LOOSE_GRILLE
  6
Continuous
 62
     7
100
AcDbLine
 10
174.5609130075
 20
82.23346392
 30
0.0
 11
174.5609130075
 21
82.85846392
 31
0.0
  0
LINE
  5
22C
330
B5
100
AcDbEntity
  8
T_R_LOOSE_GRILLE
  6
Continuous
 62
     7
100
AcDbLine
 10
174.5609130075
 20
83.18346392
 30
0.0
 11
174.5609130075
 21
83.82096392
 31
0.0
  0
LINE
  5
22D
330
B5
100
AcDbEntity
  8
T_R_LOOSE_GRILLE
  6
Continuous
 62
     7
100
AcDbLine
 10
174.5609130075
 20
84.7398979028
 30
0.0
 11
174.5609130075
 21
84.82096392
 31
0.0
  0
LINE
  5
22E
330
B5
100
AcDbEntity
  8
T_R_LOOSE_GRILLE
  6
Continuous
 62
     7
100
AcDbLine
 10
174.5609130075
 20
85.7398979028
 30
0.0
 11
174.5609130075
 21
85.82096392
 31
0.0
  0
LINE
  5
22F
330
B5
100
AcDbEntity
  8
T_R_LOOSE_GRILLE
  6
Continuous
 62
     7
100
AcDbLine
 10
174.5609130075
 20
86.7398979028
 30
0.0
 11
174.5609130075
 21
86.82096392
 31
0.0
  0
LINE
  5
230
330
B5
100
AcDbEntity
  8
T_R_LOOSE_GRILLE
  6
Continuous
 62
     7
100
AcDbLine
 10
174.5609130075
 20
87.7398979028
 30
0.0
 11
174.5609130075
 21
87.82096392
 31
0.0
  0
LINE
  5
231
330
B5
100
AcDbEntity
  8
T_R_LOOSE_GRILLE
  6
Continuous
 62
     7
100
AcDbLine
 10
174.5609130075
 20
88.7398979028
 30
0.0
 11
174.5609130075
 21
88.82096392
 31
0.0
  0
LINE
  5
232
330
B5
100
AcDbEntity
  8
T_R_LOOSE_GRILLE
  6
Continuous
 62
     7
100
AcDbLine
 10
174.5609130075
 20
89.7398979028
 30
0.0
 11
174.5609130075
 21
89.82096392
 31
0.0
  0
LINE
  5
233
330
B5
100
AcDbEntity
  8
T_R_LOOSE_GRILLE
  6
Continuous
 62
     7
100
AcDbLine
 10
174.5609130075
 20
90.7398979028
 30
0.0
 11
174.5609130075
 21
90.82096392
 31
0.0
  0
LINE
  5
234
330
B5
100
AcDbEntity
  8
T_R_LOOSE_GRILLE
  6
Continuous
 62
     7
100
AcDbLine
 10
174.5609130075
 20
91.7398979028
 30
0.0
 11
174.5609130075
 21
91.82096392
 31
0.0
  0
LINE
  5
235
330
B5
100
AcDbEntity
  8
T_R_LOOSE_GRILLE
  6
Continuous
 62
     7
100
AcDbLine
 10
174.5609130075
 20
92.7398979028
 30
0.0
 11
174.5609130075
 21
92.82096392
 31
0.0
  0
LINE
  5
236
330
B5
100
AcDbEntity
  8
T_R_LOOSE_GRILLE
  6
Continuous
 62
     7
100
AcDbLine
 10
174.5609130075
 20
93.7398979028
 30
0.0
 11
174.5609130075
 21
93.82096392
 31
0.0
  0
LINE
  5
237
330
B5
100
AcDbEntity
  8
T_R_LOOSE_GRILLE
  6
Continuous
 62
     7
100
AcDbLine
 10
174.5609130075
 20
94.7398979028
 30
0.0
 11
174.5609130075
 21
94.82096392
 31
0.0
  0
LINE
  5
238
330
B5
100
AcDbEntity
  8
T_R_LOOSE_GRILLE
  6
Continuous
 62
     7
100
AcDbLine
 10
174.5609130075
 20
95.7398979028
 30
0.0
 11
174.5609130075
 21
95.82096392
 31
0.0
  0
LINE
  5
239
330
B5
100
AcDbEntity
  8
T_R_LOOSE_GRILLE
  6
Continuous
 62
     7
100
AcDbLine
 10
174.5609130075
 20
96.7398979028
 30
0.0
 11
174.5609130075
 21
97.20846392
 31
0.0
  0
LINE
  5
23A
330
B5
100
AcDbEntity
  8
T_R_LOOSE_GRILLE
  6
Continuous
 62
     7
100
AcDbLine
 10
174.1359130075
 20
97.20846392
 30
0.0
 11
174.1359130075
 21
96.7398979028
 31
0.0
  0
LINE
  5
23B
330
B5
100
AcDbEntity
  8
T_R_LOOSE_GRILLE
  6
Continuous
 62
     7
100
AcDbLine
 10
174.1359130075
 20
95.82096392
 30
0.0
 11
174.1359130075
 21
95.7398979028
 31
0.0
  0
LINE
  5
23C
330
B5
100
AcDbEntity
  8
T_R_LOOSE_GRILLE
  6
Continuous
 62
     7
100
AcDbLine
 10
174.1359130075
 20
94.82096392
 30
0.0
 11
174.1359130075
 21
94.7398979028
 31
0.0
  0
LINE
  5
23D
330
B5
100
AcDbEntity
  8
T_R_LOOSE_GRILLE
  6
Continuous
 62
     7
100
AcDbLine
 10
174.1359130075
 20
93.82096392
 30
0.0
 11
174.1359130075
 21
93.7398979028
 31
0.0
  0
LINE
  5
23E
330
B5
100
AcDbEntity
  8
T_R_LOOSE_GRILLE
  6
Continuous
 62
     7
100
AcDbLine
 10
174.1359130075
 20
92.82096392
 30
0.0
 11
174.1359130075
 21
92.7398979028
 31
0.0
  0
LINE
  5
23F
330
B5
100
AcDbEntity
  8
T_R_LOOSE_GRILLE
  6
Continuous
 62
     7
100
AcDbLine
 10
174.1359130075
 20
91.82096392
 30
0.0
 11
174.1359130075
 21
91.7398979028
 31
0.0
  0
LINE
  5
240
330
B5
100
AcDbEntity
  8
T_R_LOOSE_GRILLE
  6
Continuous
 62
     7
100
AcDbLine
 10
174.1359130075
 20
90.82096392
 30
0.0
 11
174.1359130075
 21
90.7398979028
 31
0.0
  0
LINE
  5
241
330
B5
100
AcDbEntity
  8
T_R_LOOSE_GRILLE
  6
Continuous
 62
     7
100
AcDbLine
 10
174.1359130075
 20
89.82096392
 30
0.0
 11
174.1359130075
 21
89.7398979028
 31
0.0
  0
LINE
  5
242
330
B5
100
AcDbEntity
  8
T_R_LOOSE_GRILLE
  6
Continuous
 62
     7
100
AcDbLine
 10
174.1359130075
 20
88.82096392
 30
0.0
 11
174.1359130075
 21
88.7398979028
 31
0.0
  0
LINE
  5
243
330
B5
100
AcDbEntity
  8
T_R_LOOSE_GRILLE
  6
Continuous
 62
     7
100
AcDbLine
 10
174.1359130075
 20
87.82096392
 30
0.0
 11
174.1359130075
 21
87.7398979028
 31
0.0
  0
LINE
  5
244
330
B5
100
AcDbEntity
  8
T_R_LOOSE_GRILLE
  6
Continuous
 62
     7
100
AcDbLine
 10
174.1359130075
 20
86.82096392
 30
0.0
 11
174.1359130075
 21
86.7398979028
 31
0.0
  0
LINE
  5
245
330
B5
100
AcDbEntity
  8
T_R_LOOSE_GRILLE
  6
Continuous
 62
     7
100
AcDbLine
 10
174.1359130075
 20
85.82096392
 30
0.0
 11
174.1359130075
 21
85.7398979028
 31
0.0
  0
LINE
  5
246
330
B5
100
AcDbEntity
  8
T_R_LOOSE_GRILLE
  6
Continuous
 62
     7
100
AcDbLine
 10
174.1359130075
 20
84.82096392
 30
0.0
 11
174.1359130075
 21
84.7398979028
 31
0.0
  0
LINE
  5
247
330
B5
100
AcDbEntity
  8
T_R_LOOSE_GRILLE
  6
Continuous
 62
     7
100
AcDbLine
 10
174.1359130075
 20
83.82096392
 30
0.0
 11
174.1359130075
 21
83.18346392
 31
0.0
  0
LINE
  5
248
330
B5
100
AcDbEntity
  8
T_R_LOOSE_GRILLE
  6
Continuous
 62
     7
100
AcDbLine
 10
174.1359130075
 20
82.85846392
 30
0.0
 11
174.1359130075
 21
82.23346392
 31
0.0
  0
LINE
  5
249
330
B5
100
AcDbEntity
  8
T_R_LOOSE_GRILLE
  6
Continuous
 62
     7
100
AcDbLine
 10
174.1359130075
 20
81.90846392
 30
0.0
 11
174.1359130075
 21
81.28346392
 31
0.0
  0
LINE
  5
24A
330
B5
100
AcDbEntity
  8
T_R_LOOSE_GRILLE
  6
Continuous
 62
     7
100
AcDbLine
 10
174.1359130075
 20
80.95846392
 30
0.0
 11
174.1359130075
 21
80.33346392
 31
0.0
  0
LINE
  5
24B
330
B5
100
AcDbEntity
  8
T_R_LOOSE_GRILLE
  6
Continuous
 62
     7
100
AcDbLine
 10
174.1359130075
 20
80.00846392
 30
0.0
 11
174.1359130075
 21
79.38346392
 31
0.0
  0
LINE
  5
24C
330
B5
100
AcDbEntity
  8
T_R_LOOSE_GRILLE
  6
Continuous
 62
     7
100
AcDbLine
 10
174.1359130075
 20
79.05846392
 30
0.0
 11
174.1359130075
 21
78.60846392
 31
0.0
  0
LINE
  5
24D
330
B5
100
AcDbEntity
  8
1.5M_T_R_LOOSE_G
  6
Continuous
 62
     7
100
AcDbLine
 10
175.2484130075
 20
94.82096392
 30
0.0
 11
175.2484130075
 21
95.4898979028
 31
0.0
  0
LINE
  5
24E
330
B5
100
AcDbEntity
  8
1.5M_T_R_LOOSE_G
  6
Continuous
 62
     7
100
AcDbLine
 10
175.2484130075
 20
95.4898979028
 30
0.0
 11
175.2484130075
 21
95.7398979028
 31
0.0
  0
LINE
  5
24F
330
B5
100
AcDbEntity
  8
1.5M_T_R_LOOSE_G
  6
Continuous
 62
     7
100
AcDbLine
 10
98.5484130075
 20
95.4898979028
 30
0.0
 11
98.5484130075
 21
95.7398979028
 31
0.0
  0
LINE
  5
250
330
B5
100
AcDbEntity
  8
1.5M_T_R_LOOSE_G
  6
Continuous
 62
     7
100
AcDbLine
 10
98.5484130075
 20
94.82096392
 30
0.0
 11
98.5484130075
 21
95.4898979028
 31
0.0
  0
LINE
  5
251
330
B5
100
AcDbEntity
  8
1.5M_T_R_LOOSE_G
  6
Continuous
 62
     7
100
AcDbLine
 10
175.2484130075
 20
95.7398979028
 30
0.0
 11
98.5484130075
 21
95.7398979028
 31
0.0
  0
LINE
  5
252
330
B5
100
AcDbEntity
  8
1.5M_T_R_LOOSE_G
  6
Continuous
 62
     7
100
AcDbLine
 10
175.2484130075
 20
95.4898979028
 30
0.0
 11
98.5484130075
 21
95.4898979028
 31
0.0
  0
LINE
  5
253
330
B5
100
AcDbEntity
  8
1.5M_T_R_LOOSE_G
  6
Continuous
 62
     7
100
AcDbLine
 10
175.2484130075
 20
94.82096392
 30
0.0
 11
98.5484130075
 21
94.82096392
 31
0.0
  0
LINE
  5
254
330
B5
100
AcDbEntity
  8
1.5M_T_R_LOOSE_G
  6
Continuous
 62
     7
100
AcDbLine
 10
175.2484130075
 20
93.82096392
 30
0.0
 11
175.2484130075
 21
94.4898979028
 31
0.0
  0
LINE
  5
255
330
B5
100
AcDbEntity
  8
1.5M_T_R_LOOSE_G
  6
Continuous
 62
     7
100
AcDbLine
 10
175.2484130075
 20
94.4898979028
 30
0.0
 11
175.2484130075
 21
94.7398979028
 31
0.0
  0
LINE
  5
256
330
B5
100
AcDbEntity
  8
1.5M_T_R_LOOSE_G
  6
Continuous
 62
     7
100
AcDbLine
 10
98.5484130075
 20
94.4898979028
 30
0.0
 11
98.5484130075
 21
94.7398979028
 31
0.0
  0
LINE
  5
257
330
B5
100
AcDbEntity
  8
1.5M_T_R_LOOSE_G
  6
Continuous
 62
     7
100
AcDbLine
 10
98.5484130075
 20
93.82096392
 30
0.0
 11
98.5484130075
 21
94.4898979028
 31
0.0
  0
LINE
  5
258
330
B5
100
AcDbEntity
  8
1.5M_T_R_LOOSE_G
  6
Continuous
 62
     7
100
AcDbLine
 10
175.2484130075
 20
94.7398979028
 30
0.0
 11
98.5484130075
 21
94.7398979028
 31
0.0
  0
LINE
  5
259
330
B5
100
AcDbEntity
  8
1.5M_T_R_LOOSE_G
  6
Continuous
 62
     7
100
AcDbLine
 10
175.2484130075
 20
94.4898979028
 30
0.0
 11
98.5484130075
 21
94.4898979028
 31
0.0
  0
LINE
  5
25A
330
B5
100
AcDbEntity
  8
1.5M_T_R_LOOSE_G
  6
Continuous
 62
     7
100
AcDbLine
 10
175.2484130075
 20
93.82096392
 30
0.0
 11
98.5484130075
 21
93.82096392
 31
0.0
  0
LINE
  5
25B
330
B5
100
AcDbEntity
  8
1.5M_T_R_LOOSE_G
  6
Continuous
 62
     7
100
AcDbLine
 10
175.2484130075
 20
92.82096392
 30
0.0
 11
175.2484130075
 21
93.4898979028
 31
0.0
  0
LINE
  5
25C
330
B5
100
AcDbEntity
  8
1.5M_T_R_LOOSE_G
  6
Continuous
 62
     7
100
AcDbLine
 10
175.2484130075
 20
93.4898979028
 30
0.0
 11
175.2484130075
 21
93.7398979028
 31
0.0
  0
LINE
  5
25D
330
B5
100
AcDbEntity
  8
1.5M_T_R_LOOSE_G
  6
Continuous
 62
     7
100
AcDbLine
 10
98.5484130075
 20
93.4898979028
 30
0.0
 11
98.5484130075
 21
93.7398979028
 31
0.0
  0
LINE
  5
25E
330
B5
100
AcDbEntity
  8
1.5M_T_R_LOOSE_G
  6
Continuous
 62
     7
100
AcDbLine
 10
98.5484130075
 20
92.82096392
 30
0.0
 11
98.5484130075
 21
93.4898979028
 31
0.0
  0
LINE
  5
25F
330
B5
100
AcDbEntity
  8
1.5M_T_R_LOOSE_G
  6
Continuous
 62
     7
100
AcDbLine
 10
175.2484130075
 20
93.7398979028
 30
0.0
 11
98.5484130075
 21
93.7398979028
 31
0.0
  0
LINE
  5
260
330
B5
100
AcDbEntity
  8
1.5M_T_R_LOOSE_G
  6
Continuous
 62
     7
100
AcDbLine
 10
175.2484130075
 20
93.4898979028
 30
0.0
 11
98.5484130075
 21
93.4898979028
 31
0.0
  0
LINE
  5
261
330
B5
100
AcDbEntity
  8
1.5M_T_R_LOOSE_G
  6
Continuous
 62
     7
100
AcDbLine
 10
175.2484130075
 20
92.82096392
 30
0.0
 11
98.5484130075
 21
92.82096392
 31
0.0
  0
LINE
  5
262
330
B5
100
AcDbEntity
  8
1.5M_T_R_LOOSE_G
  6
Continuous
 62
     7
100
AcDbLine
 10
175.2484130075
 20
91.82096392
 30
0.0
 11
175.2484130075
 21
92.4898979028
 31
0.0
  0
LINE
  5
263
330
B5
100
AcDbEntity
  8
1.5M_T_R_LOOSE_G
  6
Continuous
 62
     7
100
AcDbLine
 10
175.2484130075
 20
92.4898979028
 30
0.0
 11
175.2484130075
 21
92.7398979028
 31
0.0
  0
LINE
  5
264
330
B5
100
AcDbEntity
  8
1.5M_T_R_LOOSE_G
  6
Continuous
 62
     7
100
AcDbLine
 10
98.5484130075
 20
92.4898979028
 30
0.0
 11
98.5484130075
 21
92.7398979028
 31
0.0
  0
LINE
  5
265
330
B5
100
AcDbEntity
  8
1.5M_T_R_LOOSE_G
  6
Continuous
 62
     7
100
AcDbLine
 10
98.5484130075
 20
91.82096392
 30
0.0
 11
98.5484130075
 21
92.4898979028
 31
0.0
  0
LINE
  5
266
330
B5
100
AcDbEntity
  8
1.5M_T_R_LOOSE_G
  6
Continuous
 62
     7
100
AcDbLine
 10
175.2484130075
 20
92.7398979028
 30
0.0
 11
98.5484130075
 21
92.7398979028
 31
0.0
  0
LINE
  5
267
330
B5
100
AcDbEntity
  8
1.5M_T_R_LOOSE_G
  6
Continuous
 62
     7
100
AcDbLine
 10
175.2484130075
 20
92.4898979028
 30
0.0
 11
98.5484130075
 21
92.4898979028
 31
0.0
  0
LINE
  5
268
330
B5
100
AcDbEntity
  8
1.5M_T_R_LOOSE_G
  6
Continuous
 62
     7
100
AcDbLine
 10
175.2484130075
 20
91.82096392
 30
0.0
 11
98.5484130075
 21
91.82096392
 31
0.0
  0
LINE
  5
269
330
B5
100
AcDbEntity
  8
1.5M_T_R_LOOSE_G
  6
Continuous
 62
     7
100
AcDbLine
 10
175.2484130075
 20
90.82096392
 30
0.0
 11
175.2484130075
 21
91.4898979028
 31
0.0
  0
LINE
  5
26A
330
B5
100
AcDbEntity
  8
1.5M_T_R_LOOSE_G
  6
Continuous
 62
     7
100
AcDbLine
 10
175.2484130075
 20
91.4898979028
 30
0.0
 11
175.2484130075
 21
91.7398979028
 31
0.0
  0
LINE
  5
26B
330
B5
100
AcDbEntity
  8
1.5M_T_R_LOOSE_G
  6
Continuous
 62
     7
100
AcDbLine
 10
98.5484130075
 20
91.4898979028
 30
0.0
 11
98.5484130075
 21
91.7398979028
 31
0.0
  0
LINE
  5
26C
330
B5
100
AcDbEntity
  8
1.5M_T_R_LOOSE_G
  6
Continuous
 62
     7
100
AcDbLine
 10
98.5484130075
 20
90.82096392
 30
0.0
 11
98.5484130075
 21
91.4898979028
 31
0.0
  0
LINE
  5
26D
330
B5
100
AcDbEntity
  8
1.5M_T_R_LOOSE_G
  6
Continuous
 62
     7
100
AcDbLine
 10
175.2484130075
 20
91.7398979028
 30
0.0
 11
98.5484130075
 21
91.7398979028
 31
0.0
  0
LINE
  5
26E
330
B5
100
AcDbEntity
  8
1.5M_T_R_LOOSE_G
  6
Continuous
 62
     7
100
AcDbLine
 10
175.2484130075
 20
91.4898979028
 30
0.0
 11
98.5484130075
 21
91.4898979028
 31
0.0
  0
LINE
  5
26F
330
B5
100
AcDbEntity
  8
1.5M_T_R_LOOSE_G
  6
Continuous
 62
     7
100
AcDbLine
 10
175.2484130075
 20
90.82096392
 30
0.0
 11
98.5484130075
 21
90.82096392
 31
0.0
  0
LINE
  5
270
330
B5
100
AcDbEntity
  8
1.5M_T_R_LOOSE_G
  6
Continuous
 62
     7
100
AcDbLine
 10
175.2484130075
 20
89.82096392
 30
0.0
 11
175.2484130075
 21
90.4898979028
 31
0.0
  0
LINE
  5
271
330
B5
100
AcDbEntity
  8
1.5M_T_R_LOOSE_G
  6
Continuous
 62
     7
100
AcDbLine
 10
175.2484130075
 20
90.4898979028
 30
0.0
 11
175.2484130075
 21
90.7398979028
 31
0.0
  0
LINE
  5
272
330
B5
100
AcDbEntity
  8
1.5M_T_R_LOOSE_G
  6
Continuous
 62
     7
100
AcDbLine
 10
98.5484130075
 20
90.4898979028
 30
0.0
 11
98.5484130075
 21
90.7398979028
 31
0.0
  0
LINE
  5
273
330
B5
100
AcDbEntity
  8
1.5M_T_R_LOOSE_G
  6
Continuous
 62
     7
100
AcDbLine
 10
98.5484130075
 20
89.82096392
 30
0.0
 11
98.5484130075
 21
90.4898979028
 31
0.0
  0
LINE
  5
274
330
B5
100
AcDbEntity
  8
1.5M_T_R_LOOSE_G
  6
Continuous
 62
     7
100
AcDbLine
 10
175.2484130075
 20
90.7398979028
 30
0.0
 11
98.5484130075
 21
90.7398979028
 31
0.0
  0
LINE
  5
275
330
B5
100
AcDbEntity
  8
1.5M_T_R_LOOSE_G
  6
Continuous
 62
     7
100
AcDbLine
 10
175.2484130075
 20
90.4898979028
 30
0.0
 11
98.5484130075
 21
90.4898979028
 31
0.0
  0
LINE
  5
276
330
B5
100
AcDbEntity
  8
1.5M_T_R_LOOSE_G
  6
Continuous
 62
     7
100
AcDbLine
 10
175.2484130075
 20
89.82096392
 30
0.0
 11
98.5484130075
 21
89.82096392
 31
0.0
  0
LINE
  5
277
330
B5
100
AcDbEntity
  8
1.5M_T_R_LOOSE_G
  6
Continuous
 62
     7
100
AcDbLine
 10
175.2484130075
 20
87.82096392
 30
0.0
 11
175.2484130075
 21
88.4898979028
 31
0.0
  0
LINE
  5
278
330
B5
100
AcDbEntity
  8
1.5M_T_R_LOOSE_G
  6
Continuous
 62
     7
100
AcDbLine
 10
175.2484130075
 20
88.4898979028
 30
0.0
 11
175.2484130075
 21
88.7398979028
 31
0.0
  0
LINE
  5
279
330
B5
100
AcDbEntity
  8
1.5M_T_R_LOOSE_G
  6
Continuous
 62
     7
100
AcDbLine
 10
98.5484130075
 20
88.4898979028
 30
0.0
 11
98.5484130075
 21
88.7398979028
 31
0.0
  0
LINE
  5
27A
330
B5
100
AcDbEntity
  8
1.5M_T_R_LOOSE_G
  6
Continuous
 62
     7
100
AcDbLine
 10
98.5484130075
 20
87.82096392
 30
0.0
 11
98.5484130075
 21
88.4898979028
 31
0.0
  0
LINE
  5
27B
330
B5
100
AcDbEntity
  8
1.5M_T_R_LOOSE_G
  6
Continuous
 62
     7
100
AcDbLine
 10
175.2484130075
 20
88.7398979028
 30
0.0
 11
98.5484130075
 21
88.7398979028
 31
0.0
  0
LINE
  5
27C
330
B5
100
AcDbEntity
  8
1.5M_T_R_LOOSE_G
  6
Continuous
 62
     7
100
AcDbLine
 10
175.2484130075
 20
88.4898979028
 30
0.0
 11
98.5484130075
 21
88.4898979028
 31
0.0
  0
LINE
  5
27D
330
B5
100
AcDbEntity
  8
1.5M_T_R_LOOSE_G
  6
Continuous
 62
     7
100
AcDbLine
 10
175.2484130075
 20
87.82096392
 30
0.0
 11
98.5484130075
 21
87.82096392
 31
0.0
  0
LINE
  5
27E
330
B5
100
AcDbEntity
  8
1.5M_T_R_LOOSE_G
  6
Continuous
 62
     7
100
AcDbLine
 10
175.2484130075
 20
86.82096392
 30
0.0
 11
175.2484130075
 21
87.4898979028
 31
0.0
  0
LINE
  5
27F
330
B5
100
AcDbEntity
  8
1.5M_T_R_LOOSE_G
  6
Continuous
 62
     7
100
AcDbLine
 10
175.2484130075
 20
87.4898979028
 30
0.0
 11
175.2484130075
 21
87.7398979028
 31
0.0
  0
LINE
  5
280
330
B5
100
AcDbEntity
  8
1.5M_T_R_LOOSE_G
  6
Continuous
 62
     7
100
AcDbLine
 10
98.5484130075
 20
87.4898979028
 30
0.0
 11
98.5484130075
 21
87.7398979028
 31
0.0
  0
LINE
  5
281
330
B5
100
AcDbEntity
  8
1.5M_T_R_LOOSE_G
  6
Continuous
 62
     7
100
AcDbLine
 10
98.5484130075
 20
86.82096392
 30
0.0
 11
98.5484130075
 21
87.4898979028
 31
0.0
  0
LINE
  5
282
330
B5
100
AcDbEntity
  8
1.5M_T_R_LOOSE_G
  6
Continuous
 62
     7
100
AcDbLine
 10
175.2484130075
 20
87.7398979028
 30
0.0
 11
98.5484130075
 21
87.7398979028
 31
0.0
  0
LINE
  5
283
330
B5
100
AcDbEntity
  8
1.5M_T_R_LOOSE_G
  6
Continuous
 62
     7
100
AcDbLine
 10
175.2484130075
 20
87.4898979028
 30
0.0
 11
98.5484130075
 21
87.4898979028
 31
0.0
  0
LINE
  5
284
330
B5
100
AcDbEntity
  8
1.5M_T_R_LOOSE_G
  6
Continuous
 62
     7
100
AcDbLine
 10
175.2484130075
 20
86.82096392
 30
0.0
 11
98.5484130075
 21
86.82096392
 31
0.0
  0
LINE
  5
285
330
B5
100
AcDbEntity
  8
1.5M_T_R_LOOSE_G
  6
Continuous
 62
     7
100
AcDbLine
 10
175.2484130075
 20
85.82096392
 30
0.0
 11
175.2484130075
 21
86.4898979028
 31
0.0
  0
LINE
  5
286
330
B5
100
AcDbEntity
  8
1.5M_T_R_LOOSE_G
  6
Continuous
 62
     7
100
AcDbLine
 10
175.2484130075
 20
86.4898979028
 30
0.0
 11
175.2484130075
 21
86.7398979028
 31
0.0
  0
LINE
  5
287
330
B5
100
AcDbEntity
  8
1.5M_T_R_LOOSE_G
  6
Continuous
 62
     7
100
AcDbLine
 10
98.5484130075
 20
86.4898979028
 30
0.0
 11
98.5484130075
 21
86.7398979028
 31
0.0
  0
LINE
  5
288
330
B5
100
AcDbEntity
  8
1.5M_T_R_LOOSE_G
  6
Continuous
 62
     7
100
AcDbLine
 10
98.5484130075
 20
85.82096392
 30
0.0
 11
98.5484130075
 21
86.4898979028
 31
0.0
  0
LINE
  5
289
330
B5
100
AcDbEntity
  8
1.5M_T_R_LOOSE_G
  6
Continuous
 62
     7
100
AcDbLine
 10
175.2484130075
 20
86.7398979028
 30
0.0
 11
98.5484130075
 21
86.7398979028
 31
0.0
  0
LINE
  5
28A
330
B5
100
AcDbEntity
  8
1.5M_T_R_LOOSE_G
  6
Continuous
 62
     7
100
AcDbLine
 10
175.2484130075
 20
86.4898979028
 30
0.0
 11
98.5484130075
 21
86.4898979028
 31
0.0
  0
LINE
  5
28B
330
B5
100
AcDbEntity
  8
1.5M_T_R_LOOSE_G
  6
Continuous
 62
     7
100
AcDbLine
 10
175.2484130075
 20
85.82096392
 30
0.0
 11
98.5484130075
 21
85.82096392
 31
0.0
  0
LINE
  5
28C
330
B5
100
AcDbEntity
  8
1.5M_T_R_LOOSE_G
  6
Continuous
 62
     7
100
AcDbLine
 10
175.2484130075
 20
84.82096392
 30
0.0
 11
175.2484130075
 21
85.4898979028
 31
0.0
  0
LINE
  5
28D
330
B5
100
AcDbEntity
  8
1.5M_T_R_LOOSE_G
  6
Continuous
 62
     7
100
AcDbLine
 10
175.2484130075
 20
85.4898979028
 30
0.0
 11
175.2484130075
 21
85.7398979028
 31
0.0
  0
LINE
  5
28E
330
B5
100
AcDbEntity
  8
1.5M_T_R_LOOSE_G
  6
Continuous
 62
     7
100
AcDbLine
 10
98.5484130075
 20
85.4898979028
 30
0.0
 11
98.5484130075
 21
85.7398979028
 31
0.0
  0
LINE
  5
28F
330
B5
100
AcDbEntity
  8
1.5M_T_R_LOOSE_G
  6
Continuous
 62
     7
100
AcDbLine
 10
98.5484130075
 20
84.82096392
 30
0.0
 11
98.5484130075
 21
85.4898979028
 31
0.0
  0
LINE
  5
290
330
B5
100
AcDbEntity
  8
1.5M_T_R_LOOSE_G
  6
Continuous
 62
     7
100
AcDbLine
 10
175.2484130075
 20
85.7398979028
 30
0.0
 11
98.5484130075
 21
85.7398979028
 31
0.0
  0
LINE
  5
291
330
B5
100
AcDbEntity
  8
1.5M_T_R_LOOSE_G
  6
Continuous
 62
     7
100
AcDbLine
 10
175.2484130075
 20
85.4898979028
 30
0.0
 11
98.5484130075
 21
85.4898979028
 31
0.0
  0
LINE
  5
292
330
B5
100
AcDbEntity
  8
1.5M_T_R_LOOSE_G
  6
Continuous
 62
     7
100
AcDbLine
 10
175.2484130075
 20
84.82096392
 30
0.0
 11
98.5484130075
 21
84.82096392
 31
0.0
  0
LINE
  5
293
330
B5
100
AcDbEntity
  8
1.5M_T_R_LOOSE_G
  6
Continuous
 62
     7
100
AcDbLine
 10
175.2484130075
 20
83.82096392
 30
0.0
 11
175.2484130075
 21
84.4898979028
 31
0.0
  0
LINE
  5
294
330
B5
100
AcDbEntity
  8
1.5M_T_R_LOOSE_G
  6
Continuous
 62
     7
100
AcDbLine
 10
175.2484130075
 20
84.4898979028
 30
0.0
 11
175.2484130075
 21
84.7398979028
 31
0.0
  0
LINE
  5
295
330
B5
100
AcDbEntity
  8
1.5M_T_R_LOOSE_G
  6
Continuous
 62
     7
100
AcDbLine
 10
98.5484130075
 20
84.4898979028
 30
0.0
 11
98.5484130075
 21
84.7398979028
 31
0.0
  0
LINE
  5
296
330
B5
100
AcDbEntity
  8
1.5M_T_R_LOOSE_G
  6
Continuous
 62
     7
100
AcDbLine
 10
98.5484130075
 20
83.82096392
 30
0.0
 11
98.5484130075
 21
84.4898979028
 31
0.0
  0
LINE
  5
297
330
B5
100
AcDbEntity
  8
1.5M_T_R_LOOSE_G
  6
Continuous
 62
     7
100
AcDbLine
 10
175.2484130075
 20
84.7398979028
 30
0.0
 11
98.5484130075
 21
84.7398979028
 31
0.0
  0
LINE
  5
298
330
B5
100
AcDbEntity
  8
1.5M_T_R_LOOSE_G
  6
Continuous
 62
     7
100
AcDbLine
 10
175.2484130075
 20
84.4898979028
 30
0.0
 11
98.5484130075
 21
84.4898979028
 31
0.0
  0
LINE
  5
299
330
B5
100
AcDbEntity
  8
1.5M_T_R_LOOSE_G
  6
Continuous
 62
     7
100
AcDbLine
 10
175.2484130075
 20
83.82096392
 30
0.0
 11
98.5484130075
 21
83.82096392
 31
0.0
  0
LINE
  5
29A
330
B5
100
AcDbEntity
  8
1.5M_T_R_LOOSE_G
  6
Continuous
 62
     7
100
AcDbLine
 10
175.2484130075
 20
88.82096392
 30
0.0
 11
175.2484130075
 21
89.4898979028
 31
0.0
  0
LINE
  5
29B
330
B5
100
AcDbEntity
  8
1.5M_T_R_LOOSE_G
  6
Continuous
 62
     7
100
AcDbLine
 10
175.2484130075
 20
89.4898979028
 30
0.0
 11
175.2484130075
 21
89.7398979028
 31
0.0
  0
LINE
  5
29C
330
B5
100
AcDbEntity
  8
1.5M_T_R_LOOSE_G
  6
Continuous
 62
     7
100
AcDbLine
 10
98.5484130075
 20
89.4898979028
 30
0.0
 11
98.5484130075
 21
89.7398979028
 31
0.0
  0
LINE
  5
29D
330
B5
100
AcDbEntity
  8
1.5M_T_R_LOOSE_G
  6
Continuous
 62
     7
100
AcDbLine
 10
98.5484130075
 20
88.82096392
 30
0.0
 11
98.5484130075
 21
89.4898979028
 31
0.0
  0
LINE
  5
29E
330
B5
100
AcDbEntity
  8
1.5M_T_R_LOOSE_G
  6
Continuous
 62
     7
100
AcDbLine
 10
175.2484130075
 20
89.7398979028
 30
0.0
 11
98.5484130075
 21
89.7398979028
 31
0.0
  0
LINE
  5
29F
330
B5
100
AcDbEntity
  8
1.5M_T_R_LOOSE_G
  6
Continuous
 62
     7
100
AcDbLine
 10
175.2484130075
 20
89.4898979028
 30
0.0
 11
98.5484130075
 21
89.4898979028
 31
0.0
  0
LINE
  5
2A0
330
B5
100
AcDbEntity
  8
1.5M_T_R_LOOSE_G
  6
Continuous
 62
     7
100
AcDbLine
 10
175.2484130075
 20
88.82096392
 30
0.0
 11
98.5484130075
 21
88.82096392
 31
0.0
  0
LINE
  5
2A1
330
B5
100
AcDbEntity
  8
1.5M_T_R_LOOSE_G
  6
Continuous
 62
     7
100
AcDbLine
 10
98.5484130075
 20
79.38346392
 30
0.0
 11
98.5484130075
 21
79.05846392
 31
0.0
  0
LINE
  5
2A2
330
B5
100
AcDbEntity
  8
1.5M_T_R_LOOSE_G
  6
Continuous
 62
     7
100
AcDbLine
 10
175.2484130075
 20
79.38346392
 30
0.0
 11
175.2484130075
 21
79.05846392
 31
0.0
  0
LINE
  5
2A3
330
B5
100
AcDbEntity
  8
1.5M_T_R_LOOSE_G
  6
Continuous
 62
     7
100
AcDbLine
 10
98.5484130075
 20
79.05846392
 30
0.0
 11
175.2484130075
 21
79.05846392
 31
0.0
  0
LINE
  5
2A4
330
B5
100
AcDbEntity
  8
1.5M_T_R_LOOSE_G
  6
Continuous
 62
     7
100
AcDbLine
 10
98.5484130075
 20
79.38346392
 30
0.0
 11
175.2484130075
 21
79.38346392
 31
0.0
  0
LINE
  5
2A5
330
B5
100
AcDbEntity
  8
1.5M_T_R_LOOSE_G
  6
Continuous
 62
     7
100
AcDbLine
 10
175.2484130075
 20
95.82096392
 30
0.0
 11
175.2484130075
 21
96.4898979028
 31
0.0
  0
LINE
  5
2A6
330
B5
100
AcDbEntity
  8
1.5M_T_R_LOOSE_G
  6
Continuous
 62
     7
100
AcDbLine
 10
175.2484130075
 20
96.4898979028
 30
0.0
 11
175.2484130075
 21
96.7398979028
 31
0.0
  0
LINE
  5
2A7
330
B5
100
AcDbEntity
  8
1.5M_T_R_LOOSE_G
  6
Continuous
 62
     7
100
AcDbLine
 10
98.5484130075
 20
96.4898979028
 30
0.0
 11
98.5484130075
 21
96.7398979028
 31
0.0
  0
LINE
  5
2A8
330
B5
100
AcDbEntity
  8
1.5M_T_R_LOOSE_G
  6
Continuous
 62
     7
100
AcDbLine
 10
98.5484130075
 20
95.82096392
 30
0.0
 11
98.5484130075
 21
96.4898979028
 31
0.0
  0
LINE
  5
2A9
330
B5
100
AcDbEntity
  8
1.5M_T_R_LOOSE_G
  6
Continuous
 62
     7
100
AcDbLine
 10
175.2484130075
 20
96.7398979028
 30
0.0
 11
98.5484130075
 21
96.7398979028
 31
0.0
  0
LINE
  5
2AA
330
B5
100
AcDbEntity
  8
1.5M_T_R_LOOSE_G
  6
Continuous
 62
     7
100
AcDbLine
 10
175.2484130075
 20
96.4898979028
 30
0.0
 11
98.5484130075
 21
96.4898979028
 31
0.0
  0
LINE
  5
2AB
330
B5
100
AcDbEntity
  8
1.5M_T_R_LOOSE_G
  6
Continuous
 62
     7
100
AcDbLine
 10
175.2484130075
 20
95.82096392
 30
0.0
 11
98.5484130075
 21
95.82096392
 31
0.0
  0
LINE
  5
2AC
330
B5
100
AcDbEntity
  8
T_R_LOOSE_GRILLE
  6
Continuous
 62
     7
100
AcDbLine
 10
99.7109130075
 20
78.60846392
 30
0.0
 11
99.7109130075
 21
79.05846392
 31
0.0
  0
LINE
  5
2AD
330
B5
100
AcDbEntity
  8
T_R_LOOSE_GRILLE
  6
Continuous
 62
     7
100
AcDbLine
 10
99.7109130075
 20
79.38346392
 30
0.0
 11
99.7109130075
 21
80.00846392
 31
0.0
  0
LINE
  5
2AE
330
B5
100
AcDbEntity
  8
T_R_LOOSE_GRILLE
  6
Continuous
 62
     7
100
AcDbLine
 10
99.7109130075
 20
80.33346392
 30
0.0
 11
99.7109130075
 21
80.95846392
 31
0.0
  0
LINE
  5
2AF
330
B5
100
AcDbEntity
  8
T_R_LOOSE_GRILLE
  6
Continuous
 62
     7
100
AcDbLine
 10
99.7109130075
 20
81.28346392
 30
0.0
 11
99.7109130075
 21
81.90846392
 31
0.0
  0
LINE
  5
2B0
330
B5
100
AcDbEntity
  8
T_R_LOOSE_GRILLE
  6
Continuous
 62
     7
100
AcDbLine
 10
99.7109130075
 20
82.23346392
 30
0.0
 11
99.7109130075
 21
82.85846392
 31
0.0
  0
LINE
  5
2B1
330
B5
100
AcDbEntity
  8
T_R_LOOSE_GRILLE
  6
Continuous
 62
     7
100
AcDbLine
 10
99.7109130075
 20
83.18346392
 30
0.0
 11
99.7109130075
 21
83.82096392
 31
0.0
  0
LINE
  5
2B2
330
B5
100
AcDbEntity
  8
T_R_LOOSE_GRILLE
  6
Continuous
 62
     7
100
AcDbLine
 10
99.7109130075
 20
84.7398979028
 30
0.0
 11
99.7109130075
 21
84.82096392
 31
0.0
  0
LINE
  5
2B3
330
B5
100
AcDbEntity
  8
T_R_LOOSE_GRILLE
  6
Continuous
 62
     7
100
AcDbLine
 10
99.7109130075
 20
85.7398979028
 30
0.0
 11
99.7109130075
 21
85.82096392
 31
0.0
  0
LINE
  5
2B4
330
B5
100
AcDbEntity
  8
T_R_LOOSE_GRILLE
  6
Continuous
 62
     7
100
AcDbLine
 10
99.7109130075
 20
86.7398979028
 30
0.0
 11
99.7109130075
 21
86.82096392
 31
0.0
  0
LINE
  5
2B5
330
B5
100
AcDbEntity
  8
T_R_LOOSE_GRILLE
  6
Continuous
 62
     7
100
AcDbLine
 10
99.7109130075
 20
87.7398979028
 30
0.0
 11
99.7109130075
 21
87.82096392
 31
0.0
  0
LINE
  5
2B6
330
B5
100
AcDbEntity
  8
T_R_LOOSE_GRILLE
  6
Continuous
 62
     7
100
AcDbLine
 10
99.7109130075
 20
88.7398979028
 30
0.0
 11
99.7109130075
 21
88.82096392
 31
0.0
  0
LINE
  5
2B7
330
B5
100
AcDbEntity
  8
T_R_LOOSE_GRILLE
  6
Continuous
 62
     7
100
AcDbLine
 10
99.7109130075
 20
89.7398979028
 30
0.0
 11
99.7109130075
 21
89.82096392
 31
0.0
  0
LINE
  5
2B8
330
B5
100
AcDbEntity
  8
T_R_LOOSE_GRILLE
  6
Continuous
 62
     7
100
AcDbLine
 10
99.7109130075
 20
90.7398979028
 30
0.0
 11
99.7109130075
 21
90.82096392
 31
0.0
  0
LINE
  5
2B9
330
B5
100
AcDbEntity
  8
T_R_LOOSE_GRILLE
  6
Continuous
 62
     7
100
AcDbLine
 10
99.7109130075
 20
91.7398979028
 30
0.0
 11
99.7109130075
 21
91.82096392
 31
0.0
  0
LINE
  5
2BA
330
B5
100
AcDbEntity
  8
T_R_LOOSE_GRILLE
  6
Continuous
 62
     7
100
AcDbLine
 10
99.7109130075
 20
92.7398979028
 30
0.0
 11
99.7109130075
 21
92.82096392
 31
0.0
  0
LINE
  5
2BB
330
B5
100
AcDbEntity
  8
T_R_LOOSE_GRILLE
  6
Continuous
 62
     7
100
AcDbLine
 10
99.7109130075
 20
93.7398979028
 30
0.0
 11
99.7109130075
 21
93.82096392
 31
0.0
  0
LINE
  5
2BC
330
B5
100
AcDbEntity
  8
T_R_LOOSE_GRILLE
  6
Continuous
 62
     7
100
AcDbLine
 10
99.7109130075
 20
94.7398979028
 30
0.0
 11
99.7109130075
 21
94.82096392
 31
0.0
  0
LINE
  5
2BD
330
B5
100
AcDbEntity
  8
T_R_LOOSE_GRILLE
  6
Continuous
 62
     7
100
AcDbLine
 10
99.7109130075
 20
95.7398979028
 30
0.0
 11
99.7109130075
 21
95.82096392
 31
0.0
  0
LINE
  5
2BE
330
B5
100
AcDbEntity
  8
T_R_LOOSE_GRILLE
  6
Continuous
 62
     7
100
AcDbLine
 10
99.7109130075
 20
96.7398979028
 30
0.0
 11
99.7109130075
 21
97.20846392
 31
0.0
  0
LINE
  5
2BF
330
B5
100
AcDbEntity
  8
T_R_LOOSE_GRILLE
  6
Continuous
 62
     7
100
AcDbLine
 10
99.2859130075
 20
97.20846392
 30
0.0
 11
99.2859130075
 21
96.7398979028
 31
0.0
  0
LINE
  5
2C0
330
B5
100
AcDbEntity
  8
T_R_LOOSE_GRILLE
  6
Continuous
 62
     7
100
AcDbLine
 10
99.2859130075
 20
95.82096392
 30
0.0
 11
99.2859130075
 21
95.7398979028
 31
0.0
  0
LINE
  5
2C1
330
B5
100
AcDbEntity
  8
T_R_LOOSE_GRILLE
  6
Continuous
 62
     7
100
AcDbLine
 10
99.2859130075
 20
94.82096392
 30
0.0
 11
99.2859130075
 21
94.7398979028
 31
0.0
  0
LINE
  5
2C2
330
B5
100
AcDbEntity
  8
T_R_LOOSE_GRILLE
  6
Continuous
 62
     7
100
AcDbLine
 10
99.2859130075
 20
93.82096392
 30
0.0
 11
99.2859130075
 21
93.7398979028
 31
0.0
  0
LINE
  5
2C3
330
B5
100
AcDbEntity
  8
T_R_LOOSE_GRILLE
  6
Continuous
 62
     7
100
AcDbLine
 10
99.2859130075
 20
92.82096392
 30
0.0
 11
99.2859130075
 21
92.7398979028
 31
0.0
  0
LINE
  5
2C4
330
B5
100
AcDbEntity
  8
T_R_LOOSE_GRILLE
  6
Continuous
 62
     7
100
AcDbLine
 10
99.2859130075
 20
91.82096392
 30
0.0
 11
99.2859130075
 21
91.7398979028
 31
0.0
  0
LINE
  5
2C5
330
B5
100
AcDbEntity
  8
T_R_LOOSE_GRILLE
  6
Continuous
 62
     7
100
AcDbLine
 10
99.2859130075
 20
90.82096392
 30
0.0
 11
99.2859130075
 21
90.7398979028
 31
0.0
  0
LINE
  5
2C6
330
B5
100
AcDbEntity
  8
T_R_LOOSE_GRILLE
  6
Continuous
 62
     7
100
AcDbLine
 10
99.2859130075
 20
89.82096392
 30
0.0
 11
99.2859130075
 21
89.7398979028
 31
0.0
  0
LINE
  5
2C7
330
B5
100
AcDbEntity
  8
T_R_LOOSE_GRILLE
  6
Continuous
 62
     7
100
AcDbLine
 10
99.2859130075
 20
88.82096392
 30
0.0
 11
99.2859130075
 21
88.7398979028
 31
0.0
  0
LINE
  5
2C8
330
B5
100
AcDbEntity
  8
T_R_LOOSE_GRILLE
  6
Continuous
 62
     7
100
AcDbLine
 10
99.2859130075
 20
87.82096392
 30
0.0
 11
99.2859130075
 21
87.7398979028
 31
0.0
  0
LINE
  5
2C9
330
B5
100
AcDbEntity
  8
T_R_LOOSE_GRILLE
  6
Continuous
 62
     7
100
AcDbLine
 10
99.2859130075
 20
86.82096392
 30
0.0
 11
99.2859130075
 21
86.7398979028
 31
0.0
  0
LINE
  5
2CA
330
B5
100
AcDbEntity
  8
T_R_LOOSE_GRILLE
  6
Continuous
 62
     7
100
AcDbLine
 10
99.2859130075
 20
85.82096392
 30
0.0
 11
99.2859130075
 21
85.7398979028
 31
0.0
  0
LINE
  5
2CB
330
B5
100
AcDbEntity
  8
T_R_LOOSE_GRILLE
  6
Continuous
 62
     7
100
AcDbLine
 10
99.2859130075
 20
84.82096392
 30
0.0
 11
99.2859130075
 21
84.7398979028
 31
0.0
  0
LINE
  5
2CC
330
B5
100
AcDbEntity
  8
T_R_LOOSE_GRILLE
  6
Continuous
 62
     7
100
AcDbLine
 10
99.2859130075
 20
83.82096392
 30
0.0
 11
99.2859130075
 21
83.18346392
 31
0.0
  0
LINE
  5
2CD
330
B5
100
AcDbEntity
  8
T_R_LOOSE_GRILLE
  6
Continuous
 62
     7
100
AcDbLine
 10
99.2859130075
 20
82.85846392
 30
0.0
 11
99.2859130075
 21
82.23346392
 31
0.0
  0
LINE
  5
2CE
330
B5
100
AcDbEntity
  8
T_R_LOOSE_GRILLE
  6
Continuous
 62
     7
100
AcDbLine
 10
99.2859130075
 20
81.90846392
 30
0.0
 11
99.2859130075
 21
81.28346392
 31
0.0
  0
LINE
  5
2CF
330
B5
100
AcDbEntity
  8
T_R_LOOSE_GRILLE
  6
Continuous
 62
     7
100
AcDbLine
 10
99.2859130075
 20
80.95846392
 30
0.0
 11
99.2859130075
 21
80.33346392
 31
0.0
  0
LINE
  5
2D0
330
B5
100
AcDbEntity
  8
T_R_LOOSE_GRILLE
  6
Continuous
 62
     7
100
AcDbLine
 10
99.2859130075
 20
80.00846392
 30
0.0
 11
99.2859130075
 21
79.38346392
 31
0.0
  0
LINE
  5
2D1
330
B5
100
AcDbEntity
  8
T_R_LOOSE_GRILLE
  6
Continuous
 62
     7
100
AcDbLine
 10
99.2859130075
 20
79.05846392
 30
0.0
 11
99.2859130075
 21
78.60846392
 31
0.0
  0
ENDBLK
  5
2D3
330
B5
100
AcDbEntity
  8
0
100
AcDbBlockEnd
  0
BLOCK
  5
349
330
2D4
100
AcDbEntity
  8
0
100
AcDbBlockBegin
  2
SE2
 70
     0
 10
0.0
 20
0.0
 30
0.0
  3
SE2
  1

  0
LINE
  5
2D6
330
2D4
100
AcDbEntity
  8
6021540
  6
Continuous
 62
     7
100
AcDbLine
 10
178.1514130075
 20
171.7563957968
 30
0.0
 11
178.1514130075
 21
171.6653957968
 31
0.0
  0
LINE
  5
2D7
330
2D4
100
AcDbEntity
  8
6021540
  6
Continuous
 62
     7
100
AcDbLine
 10
178.1514130075
 20
171.6653957968
 30
0.0
 11
178.1514130075
 21
150.0973957968
 31
0.0
  0
LINE
  5
2D8
330
2D4
100
AcDbEntity
  8
6021540
  6
Continuous
 62
     7
100
AcDbLine
 10
178.1514130075
 20
150.0973957968
 30
0.0
 11
178.1514130075
 21
150.0063957968
 31
0.0
  0
LINE
  5
2D9
330
2D4
100
AcDbEntity
  8
6021540
  6
Continuous
 62
     7
100
AcDbLine
 10
178.1514130075
 20
150.0063957968
 30
0.0
 11
95.9014130075
 21
150.0063957968
 31
0.0
  0
LINE
  5
2DA
330
2D4
100
AcDbEntity
  8
6021540
  6
Continuous
 62
     7
100
AcDbLine
 10
95.9014130075
 20
150.0063957968
 30
0.0
 11
95.9014130075
 21
150.0973957968
 31
0.0
  0
LINE
  5
2DB
330
2D4
100
AcDbEntity
  8
6021540
  6
Continuous
 62
     7
100
AcDbLine
 10
95.9014130075
 20
150.0973957968
 30
0.0
 11
95.9014130075
 21
171.6653957968
 31
0.0
  0
LINE
  5
2DC
330
2D4
100
AcDbEntity
  8
6021540
  6
Continuous
 62
     7
100
AcDbLine
 10
95.9014130075
 20
171.6653957968
 30
0.0
 11
95.9014130075
 21
171.7563957968
 31
0.0
  0
LINE
  5
2DD
330
2D4
100
AcDbEntity
  8
6021540
  6
Continuous
 62
     7
100
AcDbLine
 10
95.9014130075
 20
150.0973957968
 30
0.0
 11
178.1514130075
 21
150.0973957968
 31
0.0
  0
LINE
  5
2DE
330
2D4
100
AcDbEntity
  8
6021540
  6
Continuous
 62
     7
100
AcDbLine
 10
178.1514130075
 20
171.6653957968
 30
0.0
 11
95.9014130075
 21
171.6653957968
 31
0.0
  0
LINE
  5
2DF
330
2D4
100
AcDbEntity
  8
6021540
  6
Continuous
 62
     7
100
AcDbLine
 10
95.9014130075
 20
171.7563957968
 30
0.0
 11
178.1514130075
 21
171.7563957968
 31
0.0
  0
CIRCLE
  5
2E0
330
2D4
100
AcDbEntity
  8
6021540
  6
Continuous
 62
     7
100
AcDbCircle
 10
177.7514130075
 20
157.6858957968
 30
0.0
 40
0.1625
  0
CIRCLE
  5
2E1
330
2D4
100
AcDbEntity
  8
6021540
  6
Continuous
 62
     7
100
AcDbCircle
 10
177.7514130075
 20
164.0858957968
 30
0.0
 40
0.1625
  0
CIRCLE
  5
2E2
330
2D4
100
AcDbEntity
  8
6021540
  6
Continuous
 62
     7
100
AcDbCircle
 10
177.7514130075
 20
170.4858957968
 30
0.0
 40
0.1625
  0
CIRCLE
  5
2E3
330
2D4
100
AcDbEntity
  8
6021540
  6
Continuous
 62
     7
100
AcDbCircle
 10
96.3014130075
 20
151.2858957968
 30
0.0
 40
0.1625
  0
CIRCLE
  5
2E4
330
2D4
100
AcDbEntity
  8
6021540
  6
Continuous
 62
     7
100
AcDbCircle
 10
96.3014130075
 20
157.6858957968
 30
0.0
 40
0.1625
  0
CIRCLE
  5
2E5
330
2D4
100
AcDbEntity
  8
6021540
  6
Continuous
 62
     7
100
AcDbCircle
 10
96.3014130075
 20
164.0858957968
 30
0.0
 40
0.1625
  0
CIRCLE
  5
2E6
330
2D4
100
AcDbEntity
  8
6021540
  6
Continuous
 62
     7
100
AcDbCircle
 10
96.3014130075
 20
170.4858957968
 30
0.0
 40
0.1625
  0
CIRCLE
  5
2E7
330
2D4
100
AcDbEntity
  8
6021540
  6
Continuous
 62
     7
100
AcDbCircle
 10
177.7514130075
 20
151.2858957968
 30
0.0
 40
0.1625
  0
CIRCLE
  5
2E8
330
2D4
100
AcDbEntity
  8
6021540
  6
Continuous
 62
     7
100
AcDbCircle
 10
173.8624130075
 20
168.1558957968
 30
0.0
 40
0.2
  0
CIRCLE
  5
2E9
330
2D4
100
AcDbEntity
  8
6021540
  6
Continuous
 62
     7
100
AcDbCircle
 10
141.6764130075
 20
162.0058957968
 30
0.0
 40
0.2
  0
CIRCLE
  5
2EA
330
2D4
100
AcDbEntity
  8
6021540
  6
Continuous
 62
     7
100
AcDbCircle
 10
141.6764130075
 20
168.1558957968
 30
0.0
 40
0.2
  0
CIRCLE
  5
2EB
330
2D4
100
AcDbEntity
  8
6021540
  6
Continuous
 62
     7
100
AcDbCircle
 10
108.1014130075
 20
162.0058957968
 30
0.0
 40
0.2
  0
CIRCLE
  5
2EC
330
2D4
100
AcDbEntity
  8
6021540
  6
Continuous
 62
     7
100
AcDbCircle
 10
100.1904130075
 20
162.0058957968
 30
0.0
 40
0.2
  0
CIRCLE
  5
2ED
330
2D4
100
AcDbEntity
  8
6021540
  6
Continuous
 62
     7
100
AcDbCircle
 10
108.1014130075
 20
168.1558957968
 30
0.0
 40
0.2
  0
CIRCLE
  5
2EE
330
2D4
100
AcDbEntity
  8
6021540
  6
Continuous
 62
     7
100
AcDbCircle
 10
100.1904130075
 20
168.1558957968
 30
0.0
 40
0.2
  0
CIRCLE
  5
2EF
330
2D4
100
AcDbEntity
  8
6021540
  6
Continuous
 62
     7
100
AcDbCircle
 10
173.8624130075
 20
162.0058957968
 30
0.0
 40
0.2
  0
ARC
  5
2F0
330
2D4
100
AcDbEntity
  8
6021540
  6
Continuous
 62
     7
100
AcDbCircle
 10
106.9019130075
 20
157.8201284952
 30
0.0
 40
0.7500000000000034
100
AcDbArc
 50
270.0
 51
90.0
  0
LINE
  5
2F1
330
2D4
100
AcDbEntity
  8
6021540
  6
Continuous
 62
     7
100
AcDbLine
 10
106.9019130075
 20
157.0701284952
 30
0.0
 11
106.4019130075
 21
157.0701284952
 31
0.0
  0
ARC
  5
2F2
330
2D4
100
AcDbEntity
  8
6021540
  6
Continuous
 62
     7
100
AcDbCircle
 10
106.4019130075
 20
157.8201284952
 30
0.0
 40
0.7499999999999993
100
AcDbArc
 50
90.0
 51
270.0
  0
LINE
  5
2F3
330
2D4
100
AcDbEntity
  8
6021540
  6
Continuous
 62
     7
100
AcDbLine
 10
106.4019130075
 20
158.5701284952
 30
0.0
 11
106.9019130075
 21
158.5701284952
 31
0.0
  0
ARC
  5
2F4
330
2D4
100
AcDbEntity
  8
6021540
  6
Continuous
 62
     7
100
AcDbCircle
 10
106.9019130075
 20
159.7201284932
 30
0.0
 40
0.750000000000002
100
AcDbArc
 50
270.0
 51
90.0
  0
LINE
  5
2F5
330
2D4
100
AcDbEntity
  8
6021540
  6
Continuous
 62
     7
100
AcDbLine
 10
106.9019130075
 20
158.9701284932
 30
0.0
 11
106.4019130075
 21
158.9701284932
 31
0.0
  0
ARC
  5
2F6
330
2D4
100
AcDbEntity
  8
6021540
  6
Continuous
 62
     7
100
AcDbCircle
 10
106.4019130075
 20
159.7201284932
 30
0.0
 40
0.7500000000000003
100
AcDbArc
 50
90.0
 51
270.0
  0
LINE
  5
2F7
330
2D4
100
AcDbEntity
  8
6021540
  6
Continuous
 62
     7
100
AcDbLine
 10
106.4019130075
 20
160.4701284932
 30
0.0
 11
106.9019130075
 21
160.4701284932
 31
0.0
  0
ARC
  5
2F8
330
2D4
100
AcDbEntity
  8
6021540
  6
Continuous
 62
     7
100
AcDbCircle
 10
106.9019130075
 20
160.8451284921
 30
0.0
 40
0.2400000000000043
100
AcDbArc
 50
270.0
 51
90.0
  0
LINE
  5
2F9
330
2D4
100
AcDbEntity
  8
6021540
  6
Continuous
 62
     7
100
AcDbLine
 10
106.9019130075
 20
160.6051284921
 30
0.0
 11
106.4019130075
 21
160.6051284921
 31
0.0
  0
ARC
  5
2FA
330
2D4
100
AcDbEntity
  8
6021540
  6
Continuous
 62
     7
100
AcDbCircle
 10
106.4019130075
 20
160.8451284921
 30
0.0
 40
0.2400000000000019
100
AcDbArc
 50
90.0
 51
270.0
  0
LINE
  5
2FB
330
2D4
100
AcDbEntity
  8
6021540
  6
Continuous
 62
     7
100
AcDbLine
 10
106.4019130075
 20
161.0851284921
 30
0.0
 11
106.9019130075
 21
161.0851284921
 31
0.0
  0
ARC
  5
2FC
330
2D4
100
AcDbEntity
  8
6021540
  6
Continuous
 62
     7
100
AcDbCircle
 10
106.9019130075
 20
156.6951284963
 30
0.0
 40
0.2400000000000041
100
AcDbArc
 50
270.0
 51
90.0
  0
LINE
  5
2FD
330
2D4
100
AcDbEntity
  8
6021540
  6
Continuous
 62
     7
100
AcDbLine
 10
106.9019130075
 20
156.4551284963
 30
0.0
 11
106.4019130075
 21
156.4551284963
 31
0.0
  0
ARC
  5
2FE
330
2D4
100
AcDbEntity
  8
6021540
  6
Continuous
 62
     7
100
AcDbCircle
 10
106.4019130075
 20
156.6951284963
 30
0.0
 40
0.240000000000002
100
AcDbArc
 50
90.0
 51
270.0
  0
LINE
  5
2FF
330
2D4
100
AcDbEntity
  8
6021540
  6
Continuous
 62
     7
100
AcDbLine
 10
106.4019130075
 20
156.9351284963
 30
0.0
 11
106.9019130075
 21
156.9351284963
 31
0.0
  0
CIRCLE
  5
300
330
2D4
100
AcDbEntity
  8
6021540
  6
Continuous
 62
     7
100
AcDbCircle
 10
100.3264130075
 20
152.7563957968
 30
0.0
 40
0.63475
  0
CIRCLE
  5
301
330
2D4
100
AcDbEntity
  8
6021540
  6
Continuous
 62
     7
100
AcDbCircle
 10
100.3264130075
 20
152.7563957968
 30
0.0
 40
0.35
  0
CIRCLE
  5
302
330
2D4
100
AcDbEntity
  8
6021540
  6
Continuous
 62
     7
100
AcDbCircle
 10
102.8264130075
 20
152.7563957968
 30
0.0
 40
0.63475
  0
CIRCLE
  5
303
330
2D4
100
AcDbEntity
  8
6021540
  6
Continuous
 62
     7
100
AcDbCircle
 10
102.8264130075
 20
152.7563957968
 30
0.0
 40
0.35
  0
CIRCLE
  5
304
330
2D4
100
AcDbEntity
  8
6021540
  6
Continuous
 62
     7
100
AcDbCircle
 10
112.5514130075
 20
155.0518957968
 30
0.0
 40
0.08
  0
CIRCLE
  5
305
330
2D4
100
AcDbEntity
  8
6021540
  6
Continuous
 62
     7
100
AcDbCircle
 10
111.5514130075
 20
155.0518957968
 30
0.0
 40
0.08
  0
ARC
  5
306
330
2D4
100
AcDbEntity
  8
6021540
  6
Continuous
 62
     7
100
AcDbCircle
 10
101.9639130075
 20
167.5483957968
 30
0.0
 40
0.3574999999999995
100
AcDbArc
 50
90.0
 51
270.0
  0
LINE
  5
307
330
2D4
100
AcDbEntity
  8
6021540
  6
Continuous
 62
     7
100
AcDbLine
 10
101.9639130075
 20
167.1908957968
 30
0.0
 11
102.2139130075
 21
167.1908957968
 31
0.0
  0
ARC
  5
308
330
2D4
100
AcDbEntity
  8
6021540
  6
Continuous
 62
     7
100
AcDbCircle
 10
102.2139130075
 20
167.5483957968
 30
0.0
 40
0.3574999999999995
100
AcDbArc
 50
270.0
 51
90.0
  0
LINE
  5
309
330
2D4
100
AcDbEntity
  8
6021540
  6
Continuous
 62
     7
100
AcDbLine
 10
102.2139130075
 20
167.9058957968
 30
0.0
 11
101.9639130075
 21
167.9058957968
 31
0.0
  0
CIRCLE
  5
30A
330
2D4
100
AcDbEntity
  8
6021540
  6
Continuous
 62
     7
100
AcDbCircle
 10
101.8389130075
 20
165.6483957968
 30
0.0
 40
0.8750000000000001
  0
CIRCLE
  5
30B
330
2D4
100
AcDbEntity
  8
6021540
  6
Continuous
 62
     7
100
AcDbCircle
 10
101.8389130075
 20
169.4483957968
 30
0.0
 40
0.8750000000000001
  0
ARC
  5
30C
330
2D4
100
AcDbEntity
  8
6021540
  6
Continuous
 62
     7
100
AcDbCircle
 10
171.8389130075
 20
167.5877023224
 30
0.0
 40
0.3574999999999995
100
AcDbArc
 50
90.0
 51
270.0
  0
LINE
  5
30D
330
2D4
100
AcDbEntity
  8
6021540
  6
Continuous
 62
     7
100
AcDbLine
 10
171.8389130075
 20
167.2302023224
 30
0.0
 11
172.0889130075
 21
167.2302023224
 31
0.0
  0
ARC
  5
30E
330
2D4
100
AcDbEntity
  8
6021540
  6
Continuous
 62
     7
100
AcDbCircle
 10
172.0889130075
 20
167.5877023224
 30
0.0
 40
0.3574999999999995
100
AcDbArc
 50
270.0
 51
90.0
  0
LINE
  5
30F
330
2D4
100
AcDbEntity
  8
6021540
  6
Continuous
 62
     7
100
AcDbLine
 10
172.0889130075
 20
167.9452023224
 30
0.0
 11
171.8389130075
 21
167.9452023224
 31
0.0
  0
CIRCLE
  5
310
330
2D4
100
AcDbEntity
  8
6021540
  6
Continuous
 62
     7
100
AcDbCircle
 10
137.0264130075
 20
168.9898957968
 30
0.0
 40
0.3250000000000001
  0
ARC
  5
311
330
2D4
100
AcDbEntity
  8
6021540
  6
Continuous
 62
     7
100
AcDbCircle
 10
97.0514130075
 20
153.2608957968
 30
0.0
 40
0.3250000000000024
100
AcDbArc
 50
343.5560687412
 51
196.4439312588
  0
ARC
  5
312
330
2D4
100
AcDbEntity
  8
6021540
  6
Continuous
 62
     7
100
AcDbCircle
 10
97.0514130075
 20
168.9898957968
 30
0.0
 40
0.3250000000000003
100
AcDbArc
 50
333.0092817157
 51
206.9907182843
  0
ARC
  5
313
330
2D4
100
AcDbEntity
  8
6021540
  6
Continuous
 62
     7
100
AcDbCircle
 10
177.0014130075
 20
153.2608957968
 30
0.0
 40
0.3249999999999971
100
AcDbArc
 50
343.5560687412
 51
196.4439312588
  0
ARC
  5
314
330
2D4
100
AcDbEntity
  8
6021540
  6
Continuous
 62
     7
100
AcDbCircle
 10
177.0014130075
 20
168.9898957968
 30
0.0
 40
0.3250000000000003
100
AcDbArc
 50
333.0092817157
 51
206.9907182843
  0
ARC
  5
315
330
2D4
100
AcDbEntity
  8
6021540
  6
Continuous
 62
     7
100
AcDbCircle
 10
97.0514130075
 20
153.0768957968
 30
0.0
 40
0.3249999999999978
100
AcDbArc
 50
163.5560687412
 51
16.4439312588
  0
ARC
  5
316
330
2D4
100
AcDbEntity
  8
6021540
  6
Continuous
 62
     7
100
AcDbCircle
 10
177.0014130075
 20
153.0768957968
 30
0.0
 40
0.3249999999999978
100
AcDbArc
 50
163.5560687412
 51
16.4439312588
  0
ARC
  5
317
330
2D4
100
AcDbEntity
  8
6021540
  6
Continuous
 62
     7
100
AcDbCircle
 10
97.0514130075
 20
168.6948957968
 30
0.0
 40
0.3250000000000003
100
AcDbArc
 50
153.0092817157
 51
26.9907182843
  0
ARC
  5
318
330
2D4
100
AcDbEntity
  8
6021540
  6
Continuous
 62
     7
100
AcDbCircle
 10
177.0014130075
 20
168.6948957968
 30
0.0
 40
0.3250000000000003
100
AcDbArc
 50
153.0092817157
 51
26.9907182843
  0
CIRCLE
  5
319
330
2D4
100
AcDbEntity
  8
6021540
  6
Continuous
 62
     7
100
AcDbCircle
 10
137.0264130075
 20
153.2608957968
 30
0.0
 40
0.3250000000000001
  0
CIRCLE
  5
31A
330
2D4
100
AcDbEntity
  8
6021540
  6
Continuous
 62
     7
100
AcDbCircle
 10
147.7764130075
 20
164.1608957968
 30
0.0
 40
0.1249999999999999
  0
CIRCLE
  5
31B
330
2D4
100
AcDbEntity
  8
6021540
  6
Continuous
 62
     7
100
AcDbCircle
 10
150.5264130075
 20
164.1608957968
 30
0.0
 40
0.1249999999999999
  0
LINE
  5
31C
330
2D4
100
AcDbEntity
  8
6601635
  6
Continuous
 62
     7
100
AcDbLine
 10
178.2514130075
 20
171.5888957968
 30
0.0
 11
178.2514130075
 21
150.1828957968
 31
0.0
  0
LINE
  5
31D
330
2D4
100
AcDbEntity
  8
6601635
  6
Continuous
 62
     7
100
AcDbLine
 10
178.2350681068
 20
150.1218957968
 30
0.0
 11
178.1514130075
 21
150.1218957968
 31
0.0
  0
ARC
  5
31E
330
2D4
100
AcDbEntity
  8
6601635
  6
Continuous
 62
     7
100
AcDbCircle
 10
178.1294130075
 20
150.1828957968
 30
0.0
 40
0.1219999999999999
100
AcDbArc
 50
280.3888578155
 51
330.0
  0
ARC
  5
31F
330
2D4
100
AcDbEntity
  8
6601635
  6
Continuous
 62
     7
100
AcDbCircle
 10
178.1294130075
 20
150.1828957968
 30
0.0
 40
0.1219999999999893
100
AcDbArc
 50
330.0
 51
0.0
  0
ARC
  5
320
330
2D4
100
AcDbEntity
  8
6601635
  6
Continuous
 62
     7
100
AcDbCircle
 10
178.1294130075
 20
171.5888957968
 30
0.0
 40
0.1219999999999999
100
AcDbArc
 50
30.0
 51
79.6111421845
  0
ARC
  5
321
330
2D4
100
AcDbEntity
  8
6601635
  6
Continuous
 62
     7
100
AcDbCircle
 10
178.1294130075
 20
171.5888957968
 30
0.0
 40
0.1219999999999892
100
AcDbArc
 50
0.0
 51
30.0
  0
LINE
  5
322
330
2D4
100
AcDbEntity
  8
6601635
  6
Continuous
 62
     7
100
AcDbLine
 10
178.2350681068
 20
171.6498957968
 30
0.0
 11
178.1514130075
 21
171.6498957968
 31
0.0
  0
LINE
  5
323
330
2D4
100
AcDbEntity
  8
6601635
  6
Continuous
 62
     7
100
AcDbLine
 10
178.1514130075
 20
150.1219957968
 30
0.0
 11
178.2350681068
 21
150.1219957968
 31
0.0
  0
ELLIPSE
  5
324
330
2D4
100
AcDbEntity
  8
6601635
  6
Continuous
 62
     7
100
AcDbEllipse
 10
178.1294130075
 20
150.1828957968
 30
0.0
 11
-0.1220000000000276
 21
5.898209225230640E-13
 31
0.0
210
0.0
220
0.0
230
1.0
 40
0.9983606557
 41
2.617993877996308
 42
3.141592653589735
  0
LINE
  5
325
330
2D4
100
AcDbEntity
  8
6601635
  6
Continuous
 62
     7
100
AcDbLine
 10
178.1514130075
 20
171.6497957968
 30
0.0
 11
178.2350681068
 21
171.6497957968
 31
0.0
  0
ELLIPSE
  5
326
330
2D4
100
AcDbEntity
  8
6601635
  6
Continuous
 62
     7
100
AcDbEllipse
 10
178.1294130075
 20
171.5888957968
 30
0.0
 11
-0.1220000000000276
 21
-3.355634151238586E-12
 31
0.0
210
0.0
220
0.0
230
1.0
 40
0.9983606557
 41
3.141592653562476
 42
3.665191429160179
  0
ARC
  5
327
330
2D4
100
AcDbEntity
  8
6601635
  6
Continuous
 62
     7
100
AcDbCircle
 10
177.0014130075
 20
168.9898957968
 30
0.0
 40
0.3250000000000001
100
AcDbArc
 50
206.9907182844
 51
333.0092817156
  0
CIRCLE
  5
328
330
2D4
100
AcDbEntity
  8
6601635
  6
Continuous
 62
     7
100
AcDbCircle
 10
177.7514130075
 20
170.4858957968
 30
0.0
 40
0.125
  0
CIRCLE
  5
329
330
2D4
100
AcDbEntity
  8
6601635
  6
Continuous
 62
     7
100
AcDbCircle
 10
177.7514130075
 20
157.6858957968
 30
0.0
 40
0.125
  0
CIRCLE
  5
32A
330
2D4
100
AcDbEntity
  8
6601635
  6
Continuous
 62
     7
100
AcDbCircle
 10
177.7514130075
 20
164.0858957968
 30
0.0
 40
0.125
  0
CIRCLE
  5
32B
330
2D4
100
AcDbEntity
  8
6601635
  6
Continuous
 62
     7
100
AcDbCircle
 10
177.7514130075
 20
151.2858957968
 30
0.0
 40
0.125
  0
ARC
  5
32C
330
2D4
100
AcDbEntity
  8
6601635
  6
Continuous
 62
     7
100
AcDbCircle
 10
177.0014130075
 20
153.2608957968
 30
0.0
 40
0.3250000000000001
100
AcDbArc
 50
196.4439312593
 51
343.5560687407
  0
LINE
  5
32D
330
2D4
100
AcDbEntity
  8
6601630
  6
Continuous
 62
     7
100
AcDbLine
 10
95.8014130075
 20
171.5888957968
 30
0.0
 11
95.8014130075
 21
150.1828957968
 31
0.0
  0
LINE
  5
32E
330
2D4
100
AcDbEntity
  8
6601630
  6
Continuous
 62
     7
100
AcDbLine
 10
95.8177579083
 20
150.1218957968
 30
0.0
 11
95.9014130075
 21
150.1218957968
 31
0.0
  0
ARC
  5
32F
330
2D4
100
AcDbEntity
  8
6601630
  6
Continuous
 62
     7
100
AcDbCircle
 10
95.9234130075
 20
150.1828957968
 30
0.0
 40
0.1219999999999999
100
AcDbArc
 50
210.0
 51
259.6111421845
  0
ARC
  5
330
330
2D4
100
AcDbEntity
  8
6601630
  6
Continuous
 62
     7
100
AcDbCircle
 10
95.9234130075
 20
150.1828957968
 30
0.0
 40
0.1219999999999996
100
AcDbArc
 50
180.0
 51
210.0
  0
ARC
  5
331
330
2D4
100
AcDbEntity
  8
6601630
  6
Continuous
 62
     7
100
AcDbCircle
 10
95.9234130075
 20
171.5888957968
 30
0.0
 40
0.1219999999999999
100
AcDbArc
 50
100.3888578155
 51
150.0
  0
ARC
  5
332
330
2D4
100
AcDbEntity
  8
6601630
  6
Continuous
 62
     7
100
AcDbCircle
 10
95.9234130075
 20
171.5888957968
 30
0.0
 40
0.1219999999999947
100
AcDbArc
 50
150.0
 51
180.0
  0
LINE
  5
333
330
2D4
100
AcDbEntity
  8
6601630
  6
Continuous
 62
     7
100
AcDbLine
 10
95.8177579083
 20
171.6498957968
 30
0.0
 11
95.9014130075
 21
171.6498957968
 31
0.0
  0
LINE
  5
334
330
2D4
100
AcDbEntity
  8
6601630
  6
Continuous
 62
     7
100
AcDbLine
 10
95.9014130075
 20
150.1219957968
 30
0.0
 11
95.8177579083
 21
150.1219957968
 31
0.0
  0
ELLIPSE
  5
335
330
2D4
100
AcDbEntity
  8
6601630
  6
Continuous
 62
     7
100
AcDbEllipse
 10
95.9234130075
 20
150.1828957968
 30
0.0
 11
0.1220000000000276
 21
5.897910411411649E-13
 31
0.0
210
0.0
220
0.0
230
1.0
 40
0.9983606557
 41
3.141592653584951
 42
3.665191429183278
  0
LINE
  5
336
330
2D4
100
AcDbEntity
  8
6601630
  6
Continuous
 62
     7
100
AcDbLine
 10
95.9014130075
 20
171.6497957968
 30
0.0
 11
95.8177579083
 21
171.6497957968
 31
0.0
  0
ELLIPSE
  5
337
330
2D4
100
AcDbEntity
  8
6601630
  6
Continuous
 62
     7
100
AcDbEllipse
 10
95.9234130075
 20
171.5888957968
 30
0.0
 11
0.1220000000000443
 21
-2.436954479743169E-12
 31
0.0
210
0.0
220
0.0
230
1.0
 40
0.9983606557
 41
2.61799387801142
 42
3.141592653589793
  0
ARC
  5
338
330
2D4
100
AcDbEntity
  8
6601630
  6
Continuous
 62
     7
100
AcDbCircle
 10
97.0514130075
 20
168.9898957968
 30
0.0
 40
0.3250000000000001
100
AcDbArc
 50
206.9907182843
 51
333.0092817157
  0
CIRCLE
  5
339
330
2D4
100
AcDbEntity
  8
6601630
  6
Continuous
 62
     7
100
AcDbCircle
 10
96.3014130075
 20
170.4858957968
 30
0.0
 40
0.125
  0
CIRCLE
  5
33A
330
2D4
100
AcDbEntity
  8
6601630
  6
Continuous
 62
     7
100
AcDbCircle
 10
96.3014130075
 20
157.6858957968
 30
0.0
 40
0.125
  0
CIRCLE
  5
33B
330
2D4
100
AcDbEntity
  8
6601630
  6
Continuous
 62
     7
100
AcDbCircle
 10
96.3014130075
 20
164.0858957968
 30
0.0
 40
0.125
  0
CIRCLE
  5
33C
330
2D4
100
AcDbEntity
  8
6601630
  6
Continuous
 62
     7
100
AcDbCircle
 10
96.3014130075
 20
151.2858957968
 30
0.0
 40
0.125
  0
ARC
  5
33D
330
2D4
100
AcDbEntity
  8
6601630
  6
Continuous
 62
     7
100
AcDbCircle
 10
97.0514130075
 20
153.2608957968
 30
0.0
 40
0.3250000000000001
100
AcDbArc
 50
196.443931259
 51
343.556068741
  0
CIRCLE
  5
33E
330
2D4
100
AcDbEntity
  8
6301665
  6
Continuous
 62
     7
100
AcDbCircle
 10
97.0514130075
 20
153.2606457968
 30
0.0
 40
0.3
  0
ARC
  5
33F
330
2D4
100
AcDbEntity
  8
6301665
  6
Continuous
 62
     7
100
AcDbCircle
 10
96.3624130075
 20
151.3143957968
 30
0.0
 40
0.125
100
AcDbArc
 50
130.6662656493
 51
279.4189307063
  0
CIRCLE
  5
340
330
2D4
100
AcDbEntity
  8
6301665
  6
Continuous
 62
     7
100
AcDbCircle
 10
97.0514130075
 20
168.9896457968
 30
0.0
 40
0.3
  0
LINE
  5
341
330
2D4
100
AcDbEntity
  8
6301665
  6
Continuous
 62
     7
100
AcDbLine
 10
96.418966187
 20
170.4433957968
 30
0.0
 11
96.1838598281
 21
170.4433957968
 31
0.0
  0
LINE
  5
342
330
2D4
100
AcDbEntity
  8
6301665
  6
Continuous
 62
     7
100
AcDbLine
 10
96.2710248931
 20
170.3646457968
 30
0.0
 11
96.331801122
 21
170.3646457968
 31
0.0
  0
CIRCLE
  5
343
330
2D4
100
AcDbEntity
  8
6301665
  6
Continuous
 62
     7
100
AcDbCircle
 10
177.0014130075
 20
153.2606457968
 30
0.0
 40
0.3
  0
ARC
  5
344
330
2D4
100
AcDbEntity
  8
6301665
  6
Continuous
 62
     7
100
AcDbCircle
 10
177.6904130075
 20
151.3143957968
 30
0.0
 40
0.125
100
AcDbArc
 50
0.0
 51
49.3337343543
  0
ARC
  5
345
330
2D4
100
AcDbEntity
  8
6301665
  6
Continuous
 62
     7
100
AcDbCircle
 10
177.6904130075
 20
151.3143957968
 30
0.0
 40
0.125
100
AcDbArc
 50
260.58106929
 51
0.0
  0
CIRCLE
  5
346
330
2D4
100
AcDbEntity
  8
6301665
  6
Continuous
 62
     7
100
AcDbCircle
 10
177.0014130075
 20
168.9896457968
 30
0.0
 40
0.3
  0
LINE
  5
347
330
2D4
100
AcDbEntity
  8
6301665
  6
Continuous
 62
     7
100
AcDbLine
 10
177.7210248931
 20
170.3646457968
 30
0.0
 11
177.781801122
 21
170.3646457968
 31
0.0
  0
LINE
  5
348
330
2D4
100
AcDbEntity
  8
6301665
  6
Continuous
 62
     7
100
AcDbLine
 10
177.868966187
 20
170.4433957968
 30
0.0
 11
177.6338598281
 21
170.4433957968
 31
0.0
  0
ENDBLK
  5
34A
330
2D4
100
AcDbEntity
  8
0
100
AcDbBlockEnd
  0
BLOCK
  5
5C3
330
34B
100
AcDbEntity
  8
0
100
AcDbBlockBegin
  2
SE3
 70
     0
 10
0.0
 20
0.0
 30
0.0
  3
SE3
  1

  0
LINE
  5
34D
330
34B
100
AcDbEntity
  8
6021540
  6
Continuous
 62
     7
100
AcDbLine
 10
98.2264130075
 20
59.2362441533
 30
0.0
 11
98.2264130075
 21
59.3272441533
 31
0.0
  0
LINE
  5
34E
330
34B
100
AcDbEntity
  8
6021540
  6
Continuous
 62
     7
100
AcDbLine
 10
98.2264130075
 20
59.3272441533
 30
0.0
 11
98.2264130075
 21
59.3681844273
 31
0.0
  0
LINE
  5
34F
330
34B
100
AcDbEntity
  8
6021540
  6
Continuous
 62
     7
100
AcDbLine
 10
175.6264130075
 20
59.3272441533
 30
0.0
 11
175.6264130075
 21
59.2362441533
 31
0.0
  0
LINE
  5
350
330
34B
100
AcDbEntity
  8
6021540
  6
Continuous
 62
     7
100
AcDbLine
 10
175.6264130075
 20
59.2362441533
 30
0.0
 11
98.2264130075
 21
59.2362441533
 31
0.0
  0
LINE
  5
351
330
34B
100
AcDbEntity
  8
6021540
  6
Continuous
 62
     7
100
AcDbLine
 10
98.2264130075
 20
59.3681844273
 30
0.0
 11
95.8014130075
 21
59.3681844273
 31
0.0
  0
LINE
  5
352
330
34B
100
AcDbEntity
  8
6021540
  6
Continuous
 62
     7
100
AcDbLine
 10
178.0514130075
 20
60.4362441533
 30
0.0
 11
178.0514130075
 21
60.3452441533
 31
0.0
  0
LINE
  5
353
330
34B
100
AcDbEntity
  8
6021540
  6
Continuous
 62
     7
100
AcDbLine
 10
175.6264130075
 20
59.3272441533
 30
0.0
 11
175.6264130075
 21
59.3681844273
 31
0.0
  0
LINE
  5
354
330
34B
100
AcDbEntity
  8
6021540
  6
Continuous
 62
     7
100
AcDbLine
 10
175.6264130075
 20
59.3681844273
 30
0.0
 11
178.0514130075
 21
59.3681844273
 31
0.0
  0
LINE
  5
355
330
34B
100
AcDbEntity
  8
6021540
  6
Continuous
 62
     7
100
AcDbLine
 10
178.0514130075
 20
59.3681844273
 30
0.0
 11
178.0514130075
 21
60.3452441533
 31
0.0
  0
LINE
  5
356
330
34B
100
AcDbEntity
  8
6021540
  6
Continuous
 62
     7
100
AcDbLine
 10
95.8014130075
 20
60.3452441533
 30
0.0
 11
95.8014130075
 21
59.3681844273
 31
0.0
  0
LINE
  5
357
330
34B
100
AcDbEntity
  8
6021540
  6
Continuous
 62
     7
100
AcDbLine
 10
95.8014130075
 20
60.3452441533
 30
0.0
 11
95.8014130075
 21
60.4362441533
 31
0.0
  0
LINE
  5
358
330
34B
100
AcDbEntity
  8
6021540
  6
Continuous
 62
     7
100
AcDbLine
 10
95.8014130075
 20
45.6702441533
 30
0.0
 11
95.8014130075
 21
45.7157441533
 31
0.0
  0
LINE
  5
359
330
34B
100
AcDbEntity
  8
6021540
  6
Continuous
 62
     7
100
AcDbLine
 10
95.8014130075
 20
60.4362441533
 30
0.0
 11
178.0514130075
 21
60.4362441533
 31
0.0
  0
LINE
  5
35A
330
34B
100
AcDbEntity
  8
6021540
  6
Continuous
 62
     7
100
AcDbLine
 10
178.0514130075
 20
45.7157441533
 30
0.0
 11
176.6764130075
 21
45.7157441533
 31
0.0
  0
LINE
  5
35B
330
34B
100
AcDbEntity
  8
6021540
  6
Continuous
 62
     7
100
AcDbLine
 10
178.0514130075
 20
45.6702441533
 30
0.0
 11
178.0514130075
 21
45.7157441533
 31
0.0
  0
LINE
  5
35C
330
34B
100
AcDbEntity
  8
6021540
  6
Continuous
 62
     7
100
AcDbLine
 10
95.8014130075
 20
45.6702441533
 30
0.0
 11
98.2014130075
 21
45.6702441533
 31
0.0
  0
LINE
  5
35D
330
34B
100
AcDbEntity
  8
6021540
  6
Continuous
 62
     7
100
AcDbLine
 10
95.8014130075
 20
45.7157441533
 30
0.0
 11
97.1764130075
 21
45.7157441533
 31
0.0
  0
LINE
  5
35E
330
34B
100
AcDbEntity
  8
6021540
  6
Continuous
 62
     7
100
AcDbLine
 10
175.6264130075
 20
45.6952441533
 30
0.0
 11
175.6264130075
 21
45.6702441533
 31
0.0
  0
LINE
  5
35F
330
34B
100
AcDbEntity
  8
6021540
  6
Continuous
 62
     7
100
AcDbLine
 10
178.0514130075
 20
45.6702441533
 30
0.0
 11
175.6264130075
 21
45.6702441533
 31
0.0
  0
LINE
  5
360
330
34B
100
AcDbEntity
  8
6021540
  6
Continuous
 62
     7
100
AcDbLine
 10
175.6264130075
 20
45.6702441533
 30
0.0
 11
175.3514130075
 21
45.6702441533
 31
0.0
  0
LINE
  5
361
330
34B
100
AcDbEntity
  8
6021540
  6
Continuous
 62
     7
100
AcDbLine
 10
178.0514130075
 20
45.7157441533
 30
0.0
 11
178.0514130075
 21
45.7427441533
 31
0.0
  0
LINE
  5
362
330
34B
100
AcDbEntity
  8
6021540
  6
Continuous
 62
     7
100
AcDbLine
 10
95.8014130075
 20
45.7427441533
 30
0.0
 11
95.8014130075
 21
45.7157441533
 31
0.0
  0
LINE
  5
363
330
34B
100
AcDbEntity
  8
6021540
  6
Continuous
 62
     7
100
AcDbLine
 10
100.8611630075
 20
60.4822441533
 30
0.0
 11
99.5916630075
 21
60.4822441533
 31
0.0
  0
LINE
  5
364
330
34B
100
AcDbEntity
  8
6021540
  6
Continuous
 62
     7
100
AcDbLine
 10
103.3611630075
 20
60.4822441533
 30
0.0
 11
102.0916630075
 21
60.4822441533
 31
0.0
  0
ARC
  5
365
330
34B
100
AcDbEntity
  8
6021540
  6
Continuous
 62
     7
100
AcDbCircle
 10
171.8639130075
 20
59.2657441533
 30
0.0
 40
0.3575
100
AcDbArc
 50
348.6265663113
 51
355.2667145195
  0
ARC
  5
366
330
34B
100
AcDbEntity
  8
6021540
  6
Continuous
 62
     7
100
AcDbCircle
 10
171.8639130075
 20
59.2657441533
 30
0.0
 40
0.3575
100
AcDbArc
 50
184.7332854805
 51
191.3734336887
  0
ARC
  5
367
330
34B
100
AcDbEntity
  8
6021540
  6
Continuous
 62
     7
100
AcDbCircle
 10
101.9889130075
 20
59.2657441533
 30
0.0
 40
0.3575
100
AcDbArc
 50
348.6265663113
 51
355.2667145195
  0
ARC
  5
368
330
34B
100
AcDbEntity
  8
6021540
  6
Continuous
 62
     7
100
AcDbCircle
 10
101.9889130075
 20
59.2657441533
 30
0.0
 40
0.3575
100
AcDbArc
 50
184.7332854805
 51
191.3734336887
  0
ARC
  5
369
330
34B
100
AcDbEntity
  8
6021540
  6
Continuous
 62
     7
100
AcDbCircle
 10
136.9264130075
 20
59.1362441533
 30
0.0
 40
0.325
100
AcDbArc
 50
10.4593836738
 51
17.9202131398
  0
ARC
  5
36A
330
34B
100
AcDbEntity
  8
6021540
  6
Continuous
 62
     7
100
AcDbCircle
 10
136.9264130075
 20
59.1362441533
 30
0.0
 40
0.325
100
AcDbArc
 50
162.0797868602
 51
169.5406163262
  0
LINE
  5
36B
330
34B
100
AcDbEntity
  8
6021540
  6
Continuous
 62
     7
100
AcDbLine
 10
100.8611630075
 20
60.4362441533
 30
0.0
 11
100.8611630075
 21
60.4822441533
 31
0.0
  0
LINE
  5
36C
330
34B
100
AcDbEntity
  8
6021540
  6
Continuous
 62
     7
100
AcDbLine
 10
99.5916630075
 20
60.4822441533
 30
0.0
 11
99.5916630075
 21
60.4362441533
 31
0.0
  0
LINE
  5
36D
330
34B
100
AcDbEntity
  8
6021540
  6
Continuous
 62
     7
100
AcDbLine
 10
103.3611630075
 20
60.4362441533
 30
0.0
 11
103.3611630075
 21
60.4822441533
 31
0.0
  0
LINE
  5
36E
330
34B
100
AcDbEntity
  8
6021540
  6
Continuous
 62
     7
100
AcDbLine
 10
102.0916630075
 20
60.4822441533
 30
0.0
 11
102.0916630075
 21
60.4362441533
 31
0.0
  0
LINE
  5
36F
330
34B
100
AcDbEntity
  8
6501201
  6
Continuous
 62
     7
100
AcDbLine
 10
112.7014130075
 20
59.2362441533
 30
0.0
 11
112.7014130075
 21
59.1952441533
 31
0.0
  0
LINE
  5
370
330
34B
100
AcDbEntity
  8
6501201
  6
Continuous
 62
     7
100
AcDbLine
 10
111.2014130075
 20
59.1952441533
 30
0.0
 11
111.2014130075
 21
59.2362441533
 31
0.0
  0
ELLIPSE
  5
371
330
34B
100
AcDbEntity
  8
6501201
  6
Continuous
 62
     7
100
AcDbEllipse
 10
111.9514130075
 20
59.1659407999
 30
0.0
 11
0.07999999999999952
 21
1.231669376949965E-15
 31
0.0
210
0.0
220
0.0
230
1.0
 40
0.7071067812
 41
0.5445286842071021
 42
2.597063969382326
  0
LINE
  5
372
330
34B
100
AcDbEntity
  8
6042270
  6
Continuous
 62
     7
100
AcDbLine
 10
150.9264130075
 20
59.1952441533
 30
0.0
 11
150.9264130075
 21
59.2362441533
 31
0.0
  0
LINE
  5
373
330
34B
100
AcDbEntity
  8
6042270
  6
Continuous
 62
     7
100
AcDbLine
 10
147.1764130075
 20
59.2362441533
 30
0.0
 11
147.1764130075
 21
59.1952441533
 31
0.0
  0
LINE
  5
374
330
34B
100
AcDbEntity
  8
6601635
  6
Continuous
 62
     7
100
AcDbLine
 10
178.1514130075
 20
60.2687441533
 30
0.0
 11
178.1514130075
 21
45.8627441533
 31
0.0
  0
LINE
  5
375
330
34B
100
AcDbEntity
  8
6601635
  6
Continuous
 62
     7
100
AcDbLine
 10
178.1350681068
 20
45.8017441533
 30
0.0
 11
178.0294130075
 21
45.8017441533
 31
0.0
  0
LINE
  5
376
330
34B
100
AcDbEntity
  8
6601635
  6
Continuous
 62
     7
100
AcDbLine
 10
178.0294130075
 20
45.8017441533
 30
0.0
 11
176.6764130075
 21
45.8017441533
 31
0.0
  0
ARC
  5
377
330
34B
100
AcDbEntity
  8
6601635
  6
Continuous
 62
     7
100
AcDbCircle
 10
178.0294130075
 20
45.8627441533
 30
0.0
 40
0.1219999999999999
100
AcDbArc
 50
270.0
 51
330.0
  0
ARC
  5
378
330
34B
100
AcDbEntity
  8
6601635
  6
Continuous
 62
     7
100
AcDbCircle
 10
178.0294130075
 20
45.8627441533
 30
0.0
 40
0.122000000000016
100
AcDbArc
 50
330.0
 51
0.0
  0
LINE
  5
379
330
34B
100
AcDbEntity
  8
6601635
  6
Continuous
 62
     7
100
AcDbLine
 10
178.0294130075
 20
45.7407441533
 30
0.0
 11
176.6764130075
 21
45.7407441533
 31
0.0
  0
LINE
  5
37A
330
34B
100
AcDbEntity
  8
6601635
  6
Continuous
 62
     7
100
AcDbLine
 10
178.0294130075
 20
45.8018441533
 30
0.0
 11
178.1350681068
 21
45.8018441533
 31
0.0
  0
ELLIPSE
  5
37B
330
34B
100
AcDbEntity
  8
6601635
  6
Continuous
 62
     7
100
AcDbEllipse
 10
178.0294130075
 20
45.8627441533
 30
0.0
 11
-0.1219999999999721
 21
-8.845728427190180E-12
 31
0.0
210
0.0
220
0.0
230
1.0
 40
0.9983606557
 41
2.617993877918951
 42
3.141592653589797
  0
LINE
  5
37C
330
34B
100
AcDbEntity
  8
6601635
  6
Continuous
 62
     7
100
AcDbLine
 10
178.0514130075
 20
60.3296441533
 30
0.0
 11
178.1350681068
 21
60.3296441533
 31
0.0
  0
ELLIPSE
  5
37D
330
34B
100
AcDbEntity
  8
6601635
  6
Continuous
 62
     7
100
AcDbEllipse
 10
178.0294130075
 20
60.2687441533
 30
0.0
 11
-0.1220000000000055
 21
-2.034442720162181E-14
 31
0.0
210
0.0
220
0.0
230
1.0
 40
0.9983606557
 41
3.141592653589801
 42
3.665191429188089
  0
LINE
  5
37E
330
34B
100
AcDbEntity
  8
6601635
  6
Continuous
 62
     7
100
AcDbLine
 10
176.6764130075
 20
45.8018441533
 30
0.0
 11
178.0294130075
 21
45.8018441533
 31
0.0
  0
LINE
  5
37F
330
34B
100
AcDbEntity
  8
6601635
  6
Continuous
 62
     7
100
AcDbLine
 10
175.6514130075
 20
59.3681844273
 30
0.0
 11
175.6514130075
 21
59.0813636053
 31
0.0
  0
ARC
  5
380
330
34B
100
AcDbEntity
  8
6601635
  6
Continuous
 62
     7
100
AcDbCircle
 10
178.0294130075
 20
60.2687441533
 30
0.0
 40
0.1220000000000013
100
AcDbArc
 50
30.0
 51
79.6111421845
  0
ARC
  5
381
330
34B
100
AcDbEntity
  8
6601635
  6
Continuous
 62
     7
100
AcDbCircle
 10
178.0294130075
 20
60.2687441533
 30
0.0
 40
0.121999999999994
100
AcDbArc
 50
0.0
 51
30.0
  0
LINE
  5
382
330
34B
100
AcDbEntity
  8
6601635
  6
Continuous
 62
     7
100
AcDbLine
 10
178.1350681068
 20
60.3297441533
 30
0.0
 11
178.0514130075
 21
60.3297441533
 31
0.0
  0
LINE
  5
383
330
34B
100
AcDbEntity
  8
6601635
  6
Continuous
 62
     7
100
AcDbLine
 10
176.2000789972
 20
58.0502856685
 30
0.0
 11
176.2613499035
 21
58.0149108943
 31
0.0
  0
LINE
  5
384
330
34B
100
AcDbEntity
  8
6601635
  6
Continuous
 62
     7
100
AcDbLine
 10
176.0414761115
 20
58.0149108943
 30
0.0
 11
176.1027470178
 21
58.0502856685
 31
0.0
  0
LINE
  5
385
330
34B
100
AcDbEntity
  8
6601635
  6
Continuous
 62
     7
100
AcDbLine
 10
176.2000789972
 20
52.5502856685
 30
0.0
 11
176.2613499035
 21
52.5149108943
 31
0.0
  0
LINE
  5
386
330
34B
100
AcDbEntity
  8
6601635
  6
Continuous
 62
     7
100
AcDbLine
 10
176.0414761115
 20
52.5149108943
 30
0.0
 11
176.1027470178
 21
52.5502856685
 31
0.0
  0
LINE
  5
387
330
34B
100
AcDbEntity
  8
6601635
  6
Continuous
 62
     7
100
AcDbLine
 10
176.2000789972
 20
47.0502856685
 30
0.0
 11
176.2613499035
 21
47.0149108943
 31
0.0
  0
LINE
  5
388
330
34B
100
AcDbEntity
  8
6601635
  6
Continuous
 62
     7
100
AcDbLine
 10
176.0414761115
 20
47.0149108943
 30
0.0
 11
176.1027470178
 21
47.0502856685
 31
0.0
  0
LINE
  5
389
330
34B
100
AcDbEntity
  8
6601630
  6
Continuous
 62
     7
100
AcDbLine
 10
95.7014130075
 20
60.2687441533
 30
0.0
 11
95.7014130075
 21
45.8627441533
 31
0.0
  0
LINE
  5
38A
330
34B
100
AcDbEntity
  8
6601630
  6
Continuous
 62
     7
100
AcDbLine
 10
95.7177579083
 20
45.8017441533
 30
0.0
 11
95.8234130075
 21
45.8017441533
 31
0.0
  0
LINE
  5
38B
330
34B
100
AcDbEntity
  8
6601630
  6
Continuous
 62
     7
100
AcDbLine
 10
95.8234130075
 20
45.8017441533
 30
0.0
 11
97.1764130075
 21
45.8017441533
 31
0.0
  0
ARC
  5
38C
330
34B
100
AcDbEntity
  8
6601630
  6
Continuous
 62
     7
100
AcDbCircle
 10
95.8234130075
 20
45.8627441533
 30
0.0
 40
0.1219999999999999
100
AcDbArc
 50
210.0
 51
270.0
  0
ARC
  5
38D
330
34B
100
AcDbEntity
  8
6601630
  6
Continuous
 62
     7
100
AcDbCircle
 10
95.8234130075
 20
45.8627441533
 30
0.0
 40
0.1220000000000222
100
AcDbArc
 50
180.0
 51
210.0
  0
LINE
  5
38E
330
34B
100
AcDbEntity
  8
6601630
  6
Continuous
 62
     7
100
AcDbLine
 10
95.8234130075
 20
45.7407441533
 30
0.0
 11
97.1764130075
 21
45.7407441533
 31
0.0
  0
LINE
  5
38F
330
34B
100
AcDbEntity
  8
6601630
  6
Continuous
 62
     7
100
AcDbLine
 10
95.8234130075
 20
45.8018441533
 30
0.0
 11
95.7177579083
 21
45.8018441533
 31
0.0
  0
ELLIPSE
  5
390
330
34B
100
AcDbEntity
  8
6601630
  6
Continuous
 62
     7
100
AcDbEllipse
 10
95.8234130075
 20
45.8627441533
 30
0.0
 11
0.1219999999999721
 21
3.247428825517826E-12
 31
0.0
210
0.0
220
0.0
230
1.0
 40
0.9983606557
 41
3.141592653589793
 42
3.665191429161441
  0
LINE
  5
391
330
34B
100
AcDbEntity
  8
6601630
  6
Continuous
 62
     7
100
AcDbLine
 10
95.8014130075
 20
60.3296441533
 30
0.0
 11
95.7177579083
 21
60.3296441533
 31
0.0
  0
ELLIPSE
  5
392
330
34B
100
AcDbEntity
  8
6601630
  6
Continuous
 62
     7
100
AcDbEllipse
 10
95.8234130075
 20
60.2687441533
 30
0.0
 11
0.1219999999999943
 21
1.117166712974858E-12
 31
0.0
210
0.0
220
0.0
230
1.0
 40
0.9983606557
 41
2.617993877982346
 42
3.14159265358978
  0
LINE
  5
393
330
34B
100
AcDbEntity
  8
6601630
  6
Continuous
 62
     7
100
AcDbLine
 10
97.1764130075
 20
45.8018441533
 30
0.0
 11
95.8234130075
 21
45.8018441533
 31
0.0
  0
LINE
  5
394
330
34B
100
AcDbEntity
  8
6601630
  6
Continuous
 62
     7
100
AcDbLine
 10
98.2014130075
 20
59.3681844273
 30
0.0
 11
98.2014130075
 21
59.0813636053
 31
0.0
  0
ARC
  5
395
330
34B
100
AcDbEntity
  8
6601630
  6
Continuous
 62
     7
100
AcDbCircle
 10
95.8234130075
 20
60.2687441533
 30
0.0
 40
0.1220000000000013
100
AcDbArc
 50
100.3888578155
 51
150.0
  0
ARC
  5
396
330
34B
100
AcDbEntity
  8
6601630
  6
Continuous
 62
     7
100
AcDbCircle
 10
95.8234130075
 20
60.2687441533
 30
0.0
 40
0.1219999999999941
100
AcDbArc
 50
150.0
 51
180.0
  0
LINE
  5
397
330
34B
100
AcDbEntity
  8
6601630
  6
Continuous
 62
     7
100
AcDbLine
 10
95.7177579083
 20
60.3297441533
 30
0.0
 11
95.8014130075
 21
60.3297441533
 31
0.0
  0
LINE
  5
398
330
34B
100
AcDbEntity
  8
6601630
  6
Continuous
 62
     7
100
AcDbLine
 10
97.6527470178
 20
58.0502856685
 30
0.0
 11
97.5914761115
 21
58.0149108943
 31
0.0
  0
LINE
  5
399
330
34B
100
AcDbEntity
  8
6601630
  6
Continuous
 62
     7
100
AcDbLine
 10
97.8113499035
 20
58.0149108943
 30
0.0
 11
97.7500789972
 21
58.0502856685
 31
0.0
  0
LINE
  5
39A
330
34B
100
AcDbEntity
  8
6601630
  6
Continuous
 62
     7
100
AcDbLine
 10
97.6527470178
 20
52.5502856685
 30
0.0
 11
97.5914761115
 21
52.5149108943
 31
0.0
  0
LINE
  5
39B
330
34B
100
AcDbEntity
  8
6601630
  6
Continuous
 62
     7
100
AcDbLine
 10
97.8113499035
 20
52.5149108943
 30
0.0
 11
97.7500789972
 21
52.5502856685
 31
0.0
  0
LINE
  5
39C
330
34B
100
AcDbEntity
  8
6601630
  6
Continuous
 62
     7
100
AcDbLine
 10
97.6527470178
 20
47.0502856685
 30
0.0
 11
97.5914761115
 21
47.0149108943
 31
0.0
  0
LINE
  5
39D
330
34B
100
AcDbEntity
  8
6601630
  6
Continuous
 62
     7
100
AcDbLine
 10
97.8113499035
 20
47.0149108943
 30
0.0
 11
97.7500789972
 21
47.0502856685
 31
0.0
  0
LINE
  5
39E
330
34B
100
AcDbEntity
  8
6301665
  6
Continuous
 62
     7
100
AcDbLine
 10
95.8624130075
 20
45.8018441533
 30
0.0
 11
95.8624130075
 21
45.8017441533
 31
0.0
  0
LINE
  5
39F
330
34B
100
AcDbEntity
  8
6802440
  6
Continuous
 62
     7
100
AcDbLine
 10
97.1764130075
 20
59.0813636053
 30
0.0
 11
97.1764130075
 21
45.7862441533
 31
0.0
  0
LINE
  5
3A0
330
34B
100
AcDbEntity
  8
6802440
  6
Continuous
 62
     7
100
AcDbLine
 10
176.6764130075
 20
45.7862441533
 30
0.0
 11
176.6764130075
 21
59.0813636053
 31
0.0
  0
LINE
  5
3A1
330
34B
100
AcDbEntity
  8
6802440
  6
Continuous
 62
     7
100
AcDbLine
 10
176.6764130075
 20
45.6952441533
 30
0.0
 11
97.1764130075
 21
45.6952441533
 31
0.0
  0
LINE
  5
3A2
330
34B
100
AcDbEntity
  8
6802440
  6
Continuous
 62
     7
100
AcDbLine
 10
176.6764130075
 20
45.6952441533
 30
0.0
 11
176.6764130075
 21
45.7862441533
 31
0.0
  0
LINE
  5
3A3
330
34B
100
AcDbEntity
  8
6802440
  6
Continuous
 62
     7
100
AcDbLine
 10
97.1764130075
 20
45.7862441533
 30
0.0
 11
97.1764130075
 21
45.6952441533
 31
0.0
  0
LINE
  5
3A4
330
34B
100
AcDbEntity
  8
6802440
  6
Continuous
 62
     7
100
AcDbLine
 10
104.1139130075
 20
55.8202441533
 30
0.0
 11
105.3639130075
 21
55.8202441533
 31
0.0
  0
LINE
  5
3A5
330
34B
100
AcDbEntity
  8
6802440
  6
Continuous
 62
     7
100
AcDbLine
 10
105.3639130075
 20
55.8202441533
 30
0.0
 11
105.3639130075
 21
57.0702441533
 31
0.0
  0
LINE
  5
3A6
330
34B
100
AcDbEntity
  8
6802440
  6
Continuous
 62
     7
100
AcDbLine
 10
105.3639130075
 20
57.0702441533
 30
0.0
 11
104.1139130075
 21
57.0702441533
 31
0.0
  0
LINE
  5
3A7
330
34B
100
AcDbEntity
  8
6802440
  6
Continuous
 62
     7
100
AcDbLine
 10
104.1139130075
 20
57.0702441533
 30
0.0
 11
104.1139130075
 21
55.8202441533
 31
0.0
  0
LINE
  5
3A8
330
34B
100
AcDbEntity
  8
6802440
  6
Continuous
 62
     7
100
AcDbLine
 10
104.1139130075
 20
53.8202441533
 30
0.0
 11
105.3639130075
 21
53.8202441533
 31
0.0
  0
LINE
  5
3A9
330
34B
100
AcDbEntity
  8
6802440
  6
Continuous
 62
     7
100
AcDbLine
 10
105.3639130075
 20
53.8202441533
 30
0.0
 11
105.3639130075
 21
55.0702441533
 31
0.0
  0
LINE
  5
3AA
330
34B
100
AcDbEntity
  8
6802440
  6
Continuous
 62
     7
100
AcDbLine
 10
105.3639130075
 20
55.0702441533
 30
0.0
 11
104.1139130075
 21
55.0702441533
 31
0.0
  0
LINE
  5
3AB
330
34B
100
AcDbEntity
  8
6802440
  6
Continuous
 62
     7
100
AcDbLine
 10
104.1139130075
 20
55.0702441533
 30
0.0
 11
104.1139130075
 21
53.8202441533
 31
0.0
  0
LINE
  5
3AC
330
34B
100
AcDbEntity
  8
6802440
  6
Continuous
 62
     7
100
AcDbLine
 10
104.1139130075
 20
51.8202441533
 30
0.0
 11
105.3639130075
 21
51.8202441533
 31
0.0
  0
LINE
  5
3AD
330
34B
100
AcDbEntity
  8
6802440
  6
Continuous
 62
     7
100
AcDbLine
 10
105.3639130075
 20
51.8202441533
 30
0.0
 11
105.3639130075
 21
53.0702441533
 31
0.0
  0
LINE
  5
3AE
330
34B
100
AcDbEntity
  8
6802440
  6
Continuous
 62
     7
100
AcDbLine
 10
105.3639130075
 20
53.0702441533
 30
0.0
 11
104.1139130075
 21
53.0702441533
 31
0.0
  0
LINE
  5
3AF
330
34B
100
AcDbEntity
  8
6802440
  6
Continuous
 62
     7
100
AcDbLine
 10
104.1139130075
 20
53.0702441533
 30
0.0
 11
104.1139130075
 21
51.8202441533
 31
0.0
  0
LINE
  5
3B0
330
34B
100
AcDbEntity
  8
6802440
  6
Continuous
 62
     7
100
AcDbLine
 10
104.1139130075
 20
49.8202441533
 30
0.0
 11
105.3639130075
 21
49.8202441533
 31
0.0
  0
LINE
  5
3B1
330
34B
100
AcDbEntity
  8
6802440
  6
Continuous
 62
     7
100
AcDbLine
 10
105.3639130075
 20
49.8202441533
 30
0.0
 11
105.3639130075
 21
51.0702441533
 31
0.0
  0
LINE
  5
3B2
330
34B
100
AcDbEntity
  8
6802440
  6
Continuous
 62
     7
100
AcDbLine
 10
105.3639130075
 20
51.0702441533
 30
0.0
 11
104.1139130075
 21
51.0702441533
 31
0.0
  0
LINE
  5
3B3
330
34B
100
AcDbEntity
  8
6802440
  6
Continuous
 62
     7
100
AcDbLine
 10
104.1139130075
 20
51.0702441533
 30
0.0
 11
104.1139130075
 21
49.8202441533
 31
0.0
  0
LINE
  5
3B4
330
34B
100
AcDbEntity
  8
6802440
  6
Continuous
 62
     7
100
AcDbLine
 10
104.1139130075
 20
47.8202441533
 30
0.0
 11
105.3639130075
 21
47.8202441533
 31
0.0
  0
LINE
  5
3B5
330
34B
100
AcDbEntity
  8
6802440
  6
Continuous
 62
     7
100
AcDbLine
 10
105.3639130075
 20
47.8202441533
 30
0.0
 11
105.3639130075
 21
49.0702441533
 31
0.0
  0
LINE
  5
3B6
330
34B
100
AcDbEntity
  8
6802440
  6
Continuous
 62
     7
100
AcDbLine
 10
105.3639130075
 20
49.0702441533
 30
0.0
 11
104.1139130075
 21
49.0702441533
 31
0.0
  0
LINE
  5
3B7
330
34B
100
AcDbEntity
  8
6802440
  6
Continuous
 62
     7
100
AcDbLine
 10
104.1139130075
 20
49.0702441533
 30
0.0
 11
104.1139130075
 21
47.8202441533
 31
0.0
  0
LINE
  5
3B8
330
34B
100
AcDbEntity
  8
6802440
  6
Continuous
 62
     7
100
AcDbLine
 10
106.6889130075
 20
55.8202441533
 30
0.0
 11
107.9389130075
 21
55.8202441533
 31
0.0
  0
LINE
  5
3B9
330
34B
100
AcDbEntity
  8
6802440
  6
Continuous
 62
     7
100
AcDbLine
 10
107.9389130075
 20
55.8202441533
 30
0.0
 11
107.9389130075
 21
57.0702441533
 31
0.0
  0
LINE
  5
3BA
330
34B
100
AcDbEntity
  8
6802440
  6
Continuous
 62
     7
100
AcDbLine
 10
107.9389130075
 20
57.0702441533
 30
0.0
 11
106.6889130075
 21
57.0702441533
 31
0.0
  0
LINE
  5
3BB
330
34B
100
AcDbEntity
  8
6802440
  6
Continuous
 62
     7
100
AcDbLine
 10
106.6889130075
 20
57.0702441533
 30
0.0
 11
106.6889130075
 21
55.8202441533
 31
0.0
  0
LINE
  5
3BC
330
34B
100
AcDbEntity
  8
6802440
  6
Continuous
 62
     7
100
AcDbLine
 10
106.6889130075
 20
53.8202441533
 30
0.0
 11
107.9389130075
 21
53.8202441533
 31
0.0
  0
LINE
  5
3BD
330
34B
100
AcDbEntity
  8
6802440
  6
Continuous
 62
     7
100
AcDbLine
 10
107.9389130075
 20
53.8202441533
 30
0.0
 11
107.9389130075
 21
55.0702441533
 31
0.0
  0
LINE
  5
3BE
330
34B
100
AcDbEntity
  8
6802440
  6
Continuous
 62
     7
100
AcDbLine
 10
107.9389130075
 20
55.0702441533
 30
0.0
 11
106.6889130075
 21
55.0702441533
 31
0.0
  0
LINE
  5
3BF
330
34B
100
AcDbEntity
  8
6802440
  6
Continuous
 62
     7
100
AcDbLine
 10
106.6889130075
 20
55.0702441533
 30
0.0
 11
106.6889130075
 21
53.8202441533
 31
0.0
  0
LINE
  5
3C0
330
34B
100
AcDbEntity
  8
6802440
  6
Continuous
 62
     7
100
AcDbLine
 10
106.6889130075
 20
51.8202441533
 30
0.0
 11
107.9389130075
 21
51.8202441533
 31
0.0
  0
LINE
  5
3C1
330
34B
100
AcDbEntity
  8
6802440
  6
Continuous
 62
     7
100
AcDbLine
 10
107.9389130075
 20
51.8202441533
 30
0.0
 11
107.9389130075
 21
53.0702441533
 31
0.0
  0
LINE
  5
3C2
330
34B
100
AcDbEntity
  8
6802440
  6
Continuous
 62
     7
100
AcDbLine
 10
107.9389130075
 20
53.0702441533
 30
0.0
 11
106.6889130075
 21
53.0702441533
 31
0.0
  0
LINE
  5
3C3
330
34B
100
AcDbEntity
  8
6802440
  6
Continuous
 62
     7
100
AcDbLine
 10
106.6889130075
 20
53.0702441533
 30
0.0
 11
106.6889130075
 21
51.8202441533
 31
0.0
  0
LINE
  5
3C4
330
34B
100
AcDbEntity
  8
6802440
  6
Continuous
 62
     7
100
AcDbLine
 10
106.6889130075
 20
49.8202441533
 30
0.0
 11
107.9389130075
 21
49.8202441533
 31
0.0
  0
LINE
  5
3C5
330
34B
100
AcDbEntity
  8
6802440
  6
Continuous
 62
     7
100
AcDbLine
 10
107.9389130075
 20
49.8202441533
 30
0.0
 11
107.9389130075
 21
51.0702441533
 31
0.0
  0
LINE
  5
3C6
330
34B
100
AcDbEntity
  8
6802440
  6
Continuous
 62
     7
100
AcDbLine
 10
107.9389130075
 20
51.0702441533
 30
0.0
 11
106.6889130075
 21
51.0702441533
 31
0.0
  0
LINE
  5
3C7
330
34B
100
AcDbEntity
  8
6802440
  6
Continuous
 62
     7
100
AcDbLine
 10
106.6889130075
 20
51.0702441533
 30
0.0
 11
106.6889130075
 21
49.8202441533
 31
0.0
  0
LINE
  5
3C8
330
34B
100
AcDbEntity
  8
6802440
  6
Continuous
 62
     7
100
AcDbLine
 10
106.6889130075
 20
47.8202441533
 30
0.0
 11
107.9389130075
 21
47.8202441533
 31
0.0
  0
LINE
  5
3C9
330
34B
100
AcDbEntity
  8
6802440
  6
Continuous
 62
     7
100
AcDbLine
 10
107.9389130075
 20
47.8202441533
 30
0.0
 11
107.9389130075
 21
49.0702441533
 31
0.0
  0
LINE
  5
3CA
330
34B
100
AcDbEntity
  8
6802440
  6
Continuous
 62
     7
100
AcDbLine
 10
107.9389130075
 20
49.0702441533
 30
0.0
 11
106.6889130075
 21
49.0702441533
 31
0.0
  0
LINE
  5
3CB
330
34B
100
AcDbEntity
  8
6802440
  6
Continuous
 62
     7
100
AcDbLine
 10
106.6889130075
 20
49.0702441533
 30
0.0
 11
106.6889130075
 21
47.8202441533
 31
0.0
  0
LINE
  5
3CC
330
34B
100
AcDbEntity
  8
6802440
  6
Continuous
 62
     7
100
AcDbLine
 10
109.2639130075
 20
55.8202441533
 30
0.0
 11
110.5139130075
 21
55.8202441533
 31
0.0
  0
LINE
  5
3CD
330
34B
100
AcDbEntity
  8
6802440
  6
Continuous
 62
     7
100
AcDbLine
 10
110.5139130075
 20
55.8202441533
 30
0.0
 11
110.5139130075
 21
57.0702441533
 31
0.0
  0
LINE
  5
3CE
330
34B
100
AcDbEntity
  8
6802440
  6
Continuous
 62
     7
100
AcDbLine
 10
110.5139130075
 20
57.0702441533
 30
0.0
 11
109.2639130075
 21
57.0702441533
 31
0.0
  0
LINE
  5
3CF
330
34B
100
AcDbEntity
  8
6802440
  6
Continuous
 62
     7
100
AcDbLine
 10
109.2639130075
 20
57.0702441533
 30
0.0
 11
109.2639130075
 21
55.8202441533
 31
0.0
  0
LINE
  5
3D0
330
34B
100
AcDbEntity
  8
6802440
  6
Continuous
 62
     7
100
AcDbLine
 10
109.2639130075
 20
53.8202441533
 30
0.0
 11
110.5139130075
 21
53.8202441533
 31
0.0
  0
LINE
  5
3D1
330
34B
100
AcDbEntity
  8
6802440
  6
Continuous
 62
     7
100
AcDbLine
 10
110.5139130075
 20
53.8202441533
 30
0.0
 11
110.5139130075
 21
55.0702441533
 31
0.0
  0
LINE
  5
3D2
330
34B
100
AcDbEntity
  8
6802440
  6
Continuous
 62
     7
100
AcDbLine
 10
110.5139130075
 20
55.0702441533
 30
0.0
 11
109.2639130075
 21
55.0702441533
 31
0.0
  0
LINE
  5
3D3
330
34B
100
AcDbEntity
  8
6802440
  6
Continuous
 62
     7
100
AcDbLine
 10
109.2639130075
 20
55.0702441533
 30
0.0
 11
109.2639130075
 21
53.8202441533
 31
0.0
  0
LINE
  5
3D4
330
34B
100
AcDbEntity
  8
6802440
  6
Continuous
 62
     7
100
AcDbLine
 10
109.2639130075
 20
51.8202441533
 30
0.0
 11
110.5139130075
 21
51.8202441533
 31
0.0
  0
LINE
  5
3D5
330
34B
100
AcDbEntity
  8
6802440
  6
Continuous
 62
     7
100
AcDbLine
 10
110.5139130075
 20
51.8202441533
 30
0.0
 11
110.5139130075
 21
53.0702441533
 31
0.0
  0
LINE
  5
3D6
330
34B
100
AcDbEntity
  8
6802440
  6
Continuous
 62
     7
100
AcDbLine
 10
110.5139130075
 20
53.0702441533
 30
0.0
 11
109.2639130075
 21
53.0702441533
 31
0.0
  0
LINE
  5
3D7
330
34B
100
AcDbEntity
  8
6802440
  6
Continuous
 62
     7
100
AcDbLine
 10
109.2639130075
 20
53.0702441533
 30
0.0
 11
109.2639130075
 21
51.8202441533
 31
0.0
  0
LINE
  5
3D8
330
34B
100
AcDbEntity
  8
6802440
  6
Continuous
 62
     7
100
AcDbLine
 10
109.2639130075
 20
49.8202441533
 30
0.0
 11
110.5139130075
 21
49.8202441533
 31
0.0
  0
LINE
  5
3D9
330
34B
100
AcDbEntity
  8
6802440
  6
Continuous
 62
     7
100
AcDbLine
 10
110.5139130075
 20
49.8202441533
 30
0.0
 11
110.5139130075
 21
51.0702441533
 31
0.0
  0
LINE
  5
3DA
330
34B
100
AcDbEntity
  8
6802440
  6
Continuous
 62
     7
100
AcDbLine
 10
110.5139130075
 20
51.0702441533
 30
0.0
 11
109.2639130075
 21
51.0702441533
 31
0.0
  0
LINE
  5
3DB
330
34B
100
AcDbEntity
  8
6802440
  6
Continuous
 62
     7
100
AcDbLine
 10
109.2639130075
 20
51.0702441533
 30
0.0
 11
109.2639130075
 21
49.8202441533
 31
0.0
  0
LINE
  5
3DC
330
34B
100
AcDbEntity
  8
6802440
  6
Continuous
 62
     7
100
AcDbLine
 10
109.2639130075
 20
47.8202441533
 30
0.0
 11
110.5139130075
 21
47.8202441533
 31
0.0
  0
LINE
  5
3DD
330
34B
100
AcDbEntity
  8
6802440
  6
Continuous
 62
     7
100
AcDbLine
 10
110.5139130075
 20
47.8202441533
 30
0.0
 11
110.5139130075
 21
49.0702441533
 31
0.0
  0
LINE
  5
3DE
330
34B
100
AcDbEntity
  8
6802440
  6
Continuous
 62
     7
100
AcDbLine
 10
110.5139130075
 20
49.0702441533
 30
0.0
 11
109.2639130075
 21
49.0702441533
 31
0.0
  0
LINE
  5
3DF
330
34B
100
AcDbEntity
  8
6802440
  6
Continuous
 62
     7
100
AcDbLine
 10
109.2639130075
 20
49.0702441533
 30
0.0
 11
109.2639130075
 21
47.8202441533
 31
0.0
  0
LINE
  5
3E0
330
34B
100
AcDbEntity
  8
6802440
  6
Continuous
 62
     7
100
AcDbLine
 10
111.8389130075
 20
55.8202441533
 30
0.0
 11
113.0889130075
 21
55.8202441533
 31
0.0
  0
LINE
  5
3E1
330
34B
100
AcDbEntity
  8
6802440
  6
Continuous
 62
     7
100
AcDbLine
 10
113.0889130075
 20
55.8202441533
 30
0.0
 11
113.0889130075
 21
57.0702441533
 31
0.0
  0
LINE
  5
3E2
330
34B
100
AcDbEntity
  8
6802440
  6
Continuous
 62
     7
100
AcDbLine
 10
113.0889130075
 20
57.0702441533
 30
0.0
 11
111.8389130075
 21
57.0702441533
 31
0.0
  0
LINE
  5
3E3
330
34B
100
AcDbEntity
  8
6802440
  6
Continuous
 62
     7
100
AcDbLine
 10
111.8389130075
 20
57.0702441533
 30
0.0
 11
111.8389130075
 21
55.8202441533
 31
0.0
  0
LINE
  5
3E4
330
34B
100
AcDbEntity
  8
6802440
  6
Continuous
 62
     7
100
AcDbLine
 10
111.8389130075
 20
53.8202441533
 30
0.0
 11
113.0889130075
 21
53.8202441533
 31
0.0
  0
LINE
  5
3E5
330
34B
100
AcDbEntity
  8
6802440
  6
Continuous
 62
     7
100
AcDbLine
 10
113.0889130075
 20
53.8202441533
 30
0.0
 11
113.0889130075
 21
55.0702441533
 31
0.0
  0
LINE
  5
3E6
330
34B
100
AcDbEntity
  8
6802440
  6
Continuous
 62
     7
100
AcDbLine
 10
113.0889130075
 20
55.0702441533
 30
0.0
 11
111.8389130075
 21
55.0702441533
 31
0.0
  0
LINE
  5
3E7
330
34B
100
AcDbEntity
  8
6802440
  6
Continuous
 62
     7
100
AcDbLine
 10
111.8389130075
 20
55.0702441533
 30
0.0
 11
111.8389130075
 21
53.8202441533
 31
0.0
  0
LINE
  5
3E8
330
34B
100
AcDbEntity
  8
6802440
  6
Continuous
 62
     7
100
AcDbLine
 10
111.8389130075
 20
51.8202441533
 30
0.0
 11
113.0889130075
 21
51.8202441533
 31
0.0
  0
LINE
  5
3E9
330
34B
100
AcDbEntity
  8
6802440
  6
Continuous
 62
     7
100
AcDbLine
 10
113.0889130075
 20
51.8202441533
 30
0.0
 11
113.0889130075
 21
53.0702441533
 31
0.0
  0
LINE
  5
3EA
330
34B
100
AcDbEntity
  8
6802440
  6
Continuous
 62
     7
100
AcDbLine
 10
113.0889130075
 20
53.0702441533
 30
0.0
 11
111.8389130075
 21
53.0702441533
 31
0.0
  0
LINE
  5
3EB
330
34B
100
AcDbEntity
  8
6802440
  6
Continuous
 62
     7
100
AcDbLine
 10
111.8389130075
 20
53.0702441533
 30
0.0
 11
111.8389130075
 21
51.8202441533
 31
0.0
  0
LINE
  5
3EC
330
34B
100
AcDbEntity
  8
6802440
  6
Continuous
 62
     7
100
AcDbLine
 10
111.8389130075
 20
49.8202441533
 30
0.0
 11
113.0889130075
 21
49.8202441533
 31
0.0
  0
LINE
  5
3ED
330
34B
100
AcDbEntity
  8
6802440
  6
Continuous
 62
     7
100
AcDbLine
 10
113.0889130075
 20
49.8202441533
 30
0.0
 11
113.0889130075
 21
51.0702441533
 31
0.0
  0
LINE
  5
3EE
330
34B
100
AcDbEntity
  8
6802440
  6
Continuous
 62
     7
100
AcDbLine
 10
113.0889130075
 20
51.0702441533
 30
0.0
 11
111.8389130075
 21
51.0702441533
 31
0.0
  0
LINE
  5
3EF
330
34B
100
AcDbEntity
  8
6802440
  6
Continuous
 62
     7
100
AcDbLine
 10
111.8389130075
 20
51.0702441533
 30
0.0
 11
111.8389130075
 21
49.8202441533
 31
0.0
  0
LINE
  5
3F0
330
34B
100
AcDbEntity
  8
6802440
  6
Continuous
 62
     7
100
AcDbLine
 10
111.8389130075
 20
47.8202441533
 30
0.0
 11
113.0889130075
 21
47.8202441533
 31
0.0
  0
LINE
  5
3F1
330
34B
100
AcDbEntity
  8
6802440
  6
Continuous
 62
     7
100
AcDbLine
 10
113.0889130075
 20
47.8202441533
 30
0.0
 11
113.0889130075
 21
49.0702441533
 31
0.0
  0
LINE
  5
3F2
330
34B
100
AcDbEntity
  8
6802440
  6
Continuous
 62
     7
100
AcDbLine
 10
113.0889130075
 20
49.0702441533
 30
0.0
 11
111.8389130075
 21
49.0702441533
 31
0.0
  0
LINE
  5
3F3
330
34B
100
AcDbEntity
  8
6802440
  6
Continuous
 62
     7
100
AcDbLine
 10
111.8389130075
 20
49.0702441533
 30
0.0
 11
111.8389130075
 21
47.8202441533
 31
0.0
  0
LINE
  5
3F4
330
34B
100
AcDbEntity
  8
6802440
  6
Continuous
 62
     7
100
AcDbLine
 10
114.4139130075
 20
55.8202441533
 30
0.0
 11
115.6639130075
 21
55.8202441533
 31
0.0
  0
LINE
  5
3F5
330
34B
100
AcDbEntity
  8
6802440
  6
Continuous
 62
     7
100
AcDbLine
 10
115.6639130075
 20
55.8202441533
 30
0.0
 11
115.6639130075
 21
57.0702441533
 31
0.0
  0
LINE
  5
3F6
330
34B
100
AcDbEntity
  8
6802440
  6
Continuous
 62
     7
100
AcDbLine
 10
115.6639130075
 20
57.0702441533
 30
0.0
 11
114.4139130075
 21
57.0702441533
 31
0.0
  0
LINE
  5
3F7
330
34B
100
AcDbEntity
  8
6802440
  6
Continuous
 62
     7
100
AcDbLine
 10
114.4139130075
 20
57.0702441533
 30
0.0
 11
114.4139130075
 21
55.8202441533
 31
0.0
  0
LINE
  5
3F8
330
34B
100
AcDbEntity
  8
6802440
  6
Continuous
 62
     7
100
AcDbLine
 10
114.4139130075
 20
53.8202441533
 30
0.0
 11
115.6639130075
 21
53.8202441533
 31
0.0
  0
LINE
  5
3F9
330
34B
100
AcDbEntity
  8
6802440
  6
Continuous
 62
     7
100
AcDbLine
 10
115.6639130075
 20
53.8202441533
 30
0.0
 11
115.6639130075
 21
55.0702441533
 31
0.0
  0
LINE
  5
3FA
330
34B
100
AcDbEntity
  8
6802440
  6
Continuous
 62
     7
100
AcDbLine
 10
115.6639130075
 20
55.0702441533
 30
0.0
 11
114.4139130075
 21
55.0702441533
 31
0.0
  0
LINE
  5
3FB
330
34B
100
AcDbEntity
  8
6802440
  6
Continuous
 62
     7
100
AcDbLine
 10
114.4139130075
 20
55.0702441533
 30
0.0
 11
114.4139130075
 21
53.8202441533
 31
0.0
  0
LINE
  5
3FC
330
34B
100
AcDbEntity
  8
6802440
  6
Continuous
 62
     7
100
AcDbLine
 10
114.4139130075
 20
51.8202441533
 30
0.0
 11
115.6639130075
 21
51.8202441533
 31
0.0
  0
LINE
  5
3FD
330
34B
100
AcDbEntity
  8
6802440
  6
Continuous
 62
     7
100
AcDbLine
 10
115.6639130075
 20
51.8202441533
 30
0.0
 11
115.6639130075
 21
53.0702441533
 31
0.0
  0
LINE
  5
3FE
330
34B
100
AcDbEntity
  8
6802440
  6
Continuous
 62
     7
100
AcDbLine
 10
115.6639130075
 20
53.0702441533
 30
0.0
 11
114.4139130075
 21
53.0702441533
 31
0.0
  0
LINE
  5
3FF
330
34B
100
AcDbEntity
  8
6802440
  6
Continuous
 62
     7
100
AcDbLine
 10
114.4139130075
 20
53.0702441533
 30
0.0
 11
114.4139130075
 21
51.8202441533
 31
0.0
  0
LINE
  5
400
330
34B
100
AcDbEntity
  8
6802440
  6
Continuous
 62
     7
100
AcDbLine
 10
114.4139130075
 20
49.8202441533
 30
0.0
 11
115.6639130075
 21
49.8202441533
 31
0.0
  0
LINE
  5
401
330
34B
100
AcDbEntity
  8
6802440
  6
Continuous
 62
     7
100
AcDbLine
 10
115.6639130075
 20
49.8202441533
 30
0.0
 11
115.6639130075
 21
51.0702441533
 31
0.0
  0
LINE
  5
402
330
34B
100
AcDbEntity
  8
6802440
  6
Continuous
 62
     7
100
AcDbLine
 10
115.6639130075
 20
51.0702441533
 30
0.0
 11
114.4139130075
 21
51.0702441533
 31
0.0
  0
LINE
  5
403
330
34B
100
AcDbEntity
  8
6802440
  6
Continuous
 62
     7
100
AcDbLine
 10
114.4139130075
 20
51.0702441533
 30
0.0
 11
114.4139130075
 21
49.8202441533
 31
0.0
  0
LINE
  5
404
330
34B
100
AcDbEntity
  8
6802440
  6
Continuous
 62
     7
100
AcDbLine
 10
114.4139130075
 20
47.8202441533
 30
0.0
 11
115.6639130075
 21
47.8202441533
 31
0.0
  0
LINE
  5
405
330
34B
100
AcDbEntity
  8
6802440
  6
Continuous
 62
     7
100
AcDbLine
 10
115.6639130075
 20
47.8202441533
 30
0.0
 11
115.6639130075
 21
49.0702441533
 31
0.0
  0
LINE
  5
406
330
34B
100
AcDbEntity
  8
6802440
  6
Continuous
 62
     7
100
AcDbLine
 10
115.6639130075
 20
49.0702441533
 30
0.0
 11
114.4139130075
 21
49.0702441533
 31
0.0
  0
LINE
  5
407
330
34B
100
AcDbEntity
  8
6802440
  6
Continuous
 62
     7
100
AcDbLine
 10
114.4139130075
 20
49.0702441533
 30
0.0
 11
114.4139130075
 21
47.8202441533
 31
0.0
  0
LINE
  5
408
330
34B
100
AcDbEntity
  8
6802440
  6
Continuous
 62
     7
100
AcDbLine
 10
116.9889130075
 20
55.8202441533
 30
0.0
 11
118.2389130075
 21
55.8202441533
 31
0.0
  0
LINE
  5
409
330
34B
100
AcDbEntity
  8
6802440
  6
Continuous
 62
     7
100
AcDbLine
 10
118.2389130075
 20
55.8202441533
 30
0.0
 11
118.2389130075
 21
57.0702441533
 31
0.0
  0
LINE
  5
40A
330
34B
100
AcDbEntity
  8
6802440
  6
Continuous
 62
     7
100
AcDbLine
 10
118.2389130075
 20
57.0702441533
 30
0.0
 11
116.9889130075
 21
57.0702441533
 31
0.0
  0
LINE
  5
40B
330
34B
100
AcDbEntity
  8
6802440
  6
Continuous
 62
     7
100
AcDbLine
 10
116.9889130075
 20
57.0702441533
 30
0.0
 11
116.9889130075
 21
55.8202441533
 31
0.0
  0
LINE
  5
40C
330
34B
100
AcDbEntity
  8
6802440
  6
Continuous
 62
     7
100
AcDbLine
 10
116.9889130075
 20
53.8202441533
 30
0.0
 11
118.2389130075
 21
53.8202441533
 31
0.0
  0
LINE
  5
40D
330
34B
100
AcDbEntity
  8
6802440
  6
Continuous
 62
     7
100
AcDbLine
 10
118.2389130075
 20
53.8202441533
 30
0.0
 11
118.2389130075
 21
55.0702441533
 31
0.0
  0
LINE
  5
40E
330
34B
100
AcDbEntity
  8
6802440
  6
Continuous
 62
     7
100
AcDbLine
 10
118.2389130075
 20
55.0702441533
 30
0.0
 11
116.9889130075
 21
55.0702441533
 31
0.0
  0
LINE
  5
40F
330
34B
100
AcDbEntity
  8
6802440
  6
Continuous
 62
     7
100
AcDbLine
 10
116.9889130075
 20
55.0702441533
 30
0.0
 11
116.9889130075
 21
53.8202441533
 31
0.0
  0
LINE
  5
410
330
34B
100
AcDbEntity
  8
6802440
  6
Continuous
 62
     7
100
AcDbLine
 10
116.9889130075
 20
51.8202441533
 30
0.0
 11
118.2389130075
 21
51.8202441533
 31
0.0
  0
LINE
  5
411
330
34B
100
AcDbEntity
  8
6802440
  6
Continuous
 62
     7
100
AcDbLine
 10
118.2389130075
 20
51.8202441533
 30
0.0
 11
118.2389130075
 21
53.0702441533
 31
0.0
  0
LINE
  5
412
330
34B
100
AcDbEntity
  8
6802440
  6
Continuous
 62
     7
100
AcDbLine
 10
118.2389130075
 20
53.0702441533
 30
0.0
 11
116.9889130075
 21
53.0702441533
 31
0.0
  0
LINE
  5
413
330
34B
100
AcDbEntity
  8
6802440
  6
Continuous
 62
     7
100
AcDbLine
 10
116.9889130075
 20
53.0702441533
 30
0.0
 11
116.9889130075
 21
51.8202441533
 31
0.0
  0
LINE
  5
414
330
34B
100
AcDbEntity
  8
6802440
  6
Continuous
 62
     7
100
AcDbLine
 10
116.9889130075
 20
49.8202441533
 30
0.0
 11
118.2389130075
 21
49.8202441533
 31
0.0
  0
LINE
  5
415
330
34B
100
AcDbEntity
  8
6802440
  6
Continuous
 62
     7
100
AcDbLine
 10
118.2389130075
 20
49.8202441533
 30
0.0
 11
118.2389130075
 21
51.0702441533
 31
0.0
  0
LINE
  5
416
330
34B
100
AcDbEntity
  8
6802440
  6
Continuous
 62
     7
100
AcDbLine
 10
118.2389130075
 20
51.0702441533
 30
0.0
 11
116.9889130075
 21
51.0702441533
 31
0.0
  0
LINE
  5
417
330
34B
100
AcDbEntity
  8
6802440
  6
Continuous
 62
     7
100
AcDbLine
 10
116.9889130075
 20
51.0702441533
 30
0.0
 11
116.9889130075
 21
49.8202441533
 31
0.0
  0
LINE
  5
418
330
34B
100
AcDbEntity
  8
6802440
  6
Continuous
 62
     7
100
AcDbLine
 10
116.9889130075
 20
47.8202441533
 30
0.0
 11
118.2389130075
 21
47.8202441533
 31
0.0
  0
LINE
  5
419
330
34B
100
AcDbEntity
  8
6802440
  6
Continuous
 62
     7
100
AcDbLine
 10
118.2389130075
 20
47.8202441533
 30
0.0
 11
118.2389130075
 21
49.0702441533
 31
0.0
  0
LINE
  5
41A
330
34B
100
AcDbEntity
  8
6802440
  6
Continuous
 62
     7
100
AcDbLine
 10
118.2389130075
 20
49.0702441533
 30
0.0
 11
116.9889130075
 21
49.0702441533
 31
0.0
  0
LINE
  5
41B
330
34B
100
AcDbEntity
  8
6802440
  6
Continuous
 62
     7
100
AcDbLine
 10
116.9889130075
 20
49.0702441533
 30
0.0
 11
116.9889130075
 21
47.8202441533
 31
0.0
  0
LINE
  5
41C
330
34B
100
AcDbEntity
  8
6802440
  6
Continuous
 62
     7
100
AcDbLine
 10
119.5639130075
 20
55.8202441533
 30
0.0
 11
120.8139130075
 21
55.8202441533
 31
0.0
  0
LINE
  5
41D
330
34B
100
AcDbEntity
  8
6802440
  6
Continuous
 62
     7
100
AcDbLine
 10
120.8139130075
 20
55.8202441533
 30
0.0
 11
120.8139130075
 21
57.0702441533
 31
0.0
  0
LINE
  5
41E
330
34B
100
AcDbEntity
  8
6802440
  6
Continuous
 62
     7
100
AcDbLine
 10
120.8139130075
 20
57.0702441533
 30
0.0
 11
119.5639130075
 21
57.0702441533
 31
0.0
  0
LINE
  5
41F
330
34B
100
AcDbEntity
  8
6802440
  6
Continuous
 62
     7
100
AcDbLine
 10
119.5639130075
 20
57.0702441533
 30
0.0
 11
119.5639130075
 21
55.8202441533
 31
0.0
  0
LINE
  5
420
330
34B
100
AcDbEntity
  8
6802440
  6
Continuous
 62
     7
100
AcDbLine
 10
119.5639130075
 20
53.8202441533
 30
0.0
 11
120.8139130075
 21
53.8202441533
 31
0.0
  0
LINE
  5
421
330
34B
100
AcDbEntity
  8
6802440
  6
Continuous
 62
     7
100
AcDbLine
 10
120.8139130075
 20
53.8202441533
 30
0.0
 11
120.8139130075
 21
55.0702441533
 31
0.0
  0
LINE
  5
422
330
34B
100
AcDbEntity
  8
6802440
  6
Continuous
 62
     7
100
AcDbLine
 10
120.8139130075
 20
55.0702441533
 30
0.0
 11
119.5639130075
 21
55.0702441533
 31
0.0
  0
LINE
  5
423
330
34B
100
AcDbEntity
  8
6802440
  6
Continuous
 62
     7
100
AcDbLine
 10
119.5639130075
 20
55.0702441533
 30
0.0
 11
119.5639130075
 21
53.8202441533
 31
0.0
  0
LINE
  5
424
330
34B
100
AcDbEntity
  8
6802440
  6
Continuous
 62
     7
100
AcDbLine
 10
119.5639130075
 20
51.8202441533
 30
0.0
 11
120.8139130075
 21
51.8202441533
 31
0.0
  0
LINE
  5
425
330
34B
100
AcDbEntity
  8
6802440
  6
Continuous
 62
     7
100
AcDbLine
 10
120.8139130075
 20
51.8202441533
 30
0.0
 11
120.8139130075
 21
53.0702441533
 31
0.0
  0
LINE
  5
426
330
34B
100
AcDbEntity
  8
6802440
  6
Continuous
 62
     7
100
AcDbLine
 10
120.8139130075
 20
53.0702441533
 30
0.0
 11
119.5639130075
 21
53.0702441533
 31
0.0
  0
LINE
  5
427
330
34B
100
AcDbEntity
  8
6802440
  6
Continuous
 62
     7
100
AcDbLine
 10
119.5639130075
 20
53.0702441533
 30
0.0
 11
119.5639130075
 21
51.8202441533
 31
0.0
  0
LINE
  5
428
330
34B
100
AcDbEntity
  8
6802440
  6
Continuous
 62
     7
100
AcDbLine
 10
119.5639130075
 20
49.8202441533
 30
0.0
 11
120.8139130075
 21
49.8202441533
 31
0.0
  0
LINE
  5
429
330
34B
100
AcDbEntity
  8
6802440
  6
Continuous
 62
     7
100
AcDbLine
 10
120.8139130075
 20
49.8202441533
 30
0.0
 11
120.8139130075
 21
51.0702441533
 31
0.0
  0
LINE
  5
42A
330
34B
100
AcDbEntity
  8
6802440
  6
Continuous
 62
     7
100
AcDbLine
 10
120.8139130075
 20
51.0702441533
 30
0.0
 11
119.5639130075
 21
51.0702441533
 31
0.0
  0
LINE
  5
42B
330
34B
100
AcDbEntity
  8
6802440
  6
Continuous
 62
     7
100
AcDbLine
 10
119.5639130075
 20
51.0702441533
 30
0.0
 11
119.5639130075
 21
49.8202441533
 31
0.0
  0
LINE
  5
42C
330
34B
100
AcDbEntity
  8
6802440
  6
Continuous
 62
     7
100
AcDbLine
 10
119.5639130075
 20
47.8202441533
 30
0.0
 11
120.8139130075
 21
47.8202441533
 31
0.0
  0
LINE
  5
42D
330
34B
100
AcDbEntity
  8
6802440
  6
Continuous
 62
     7
100
AcDbLine
 10
120.8139130075
 20
47.8202441533
 30
0.0
 11
120.8139130075
 21
49.0702441533
 31
0.0
  0
LINE
  5
42E
330
34B
100
AcDbEntity
  8
6802440
  6
Continuous
 62
     7
100
AcDbLine
 10
120.8139130075
 20
49.0702441533
 30
0.0
 11
119.5639130075
 21
49.0702441533
 31
0.0
  0
LINE
  5
42F
330
34B
100
AcDbEntity
  8
6802440
  6
Continuous
 62
     7
100
AcDbLine
 10
119.5639130075
 20
49.0702441533
 30
0.0
 11
119.5639130075
 21
47.8202441533
 31
0.0
  0
LINE
  5
430
330
34B
100
AcDbEntity
  8
6802440
  6
Continuous
 62
     7
100
AcDbLine
 10
122.1389130075
 20
55.8202441533
 30
0.0
 11
123.3889130075
 21
55.8202441533
 31
0.0
  0
LINE
  5
431
330
34B
100
AcDbEntity
  8
6802440
  6
Continuous
 62
     7
100
AcDbLine
 10
123.3889130075
 20
55.8202441533
 30
0.0
 11
123.3889130075
 21
57.0702441533
 31
0.0
  0
LINE
  5
432
330
34B
100
AcDbEntity
  8
6802440
  6
Continuous
 62
     7
100
AcDbLine
 10
123.3889130075
 20
57.0702441533
 30
0.0
 11
122.1389130075
 21
57.0702441533
 31
0.0
  0
LINE
  5
433
330
34B
100
AcDbEntity
  8
6802440
  6
Continuous
 62
     7
100
AcDbLine
 10
122.1389130075
 20
57.0702441533
 30
0.0
 11
122.1389130075
 21
55.8202441533
 31
0.0
  0
LINE
  5
434
330
34B
100
AcDbEntity
  8
6802440
  6
Continuous
 62
     7
100
AcDbLine
 10
122.1389130075
 20
53.8202441533
 30
0.0
 11
123.3889130075
 21
53.8202441533
 31
0.0
  0
LINE
  5
435
330
34B
100
AcDbEntity
  8
6802440
  6
Continuous
 62
     7
100
AcDbLine
 10
123.3889130075
 20
53.8202441533
 30
0.0
 11
123.3889130075
 21
55.0702441533
 31
0.0
  0
LINE
  5
436
330
34B
100
AcDbEntity
  8
6802440
  6
Continuous
 62
     7
100
AcDbLine
 10
123.3889130075
 20
55.0702441533
 30
0.0
 11
122.1389130075
 21
55.0702441533
 31
0.0
  0
LINE
  5
437
330
34B
100
AcDbEntity
  8
6802440
  6
Continuous
 62
     7
100
AcDbLine
 10
122.1389130075
 20
55.0702441533
 30
0.0
 11
122.1389130075
 21
53.8202441533
 31
0.0
  0
LINE
  5
438
330
34B
100
AcDbEntity
  8
6802440
  6
Continuous
 62
     7
100
AcDbLine
 10
122.1389130075
 20
51.8202441533
 30
0.0
 11
123.3889130075
 21
51.8202441533
 31
0.0
  0
LINE
  5
439
330
34B
100
AcDbEntity
  8
6802440
  6
Continuous
 62
     7
100
AcDbLine
 10
123.3889130075
 20
51.8202441533
 30
0.0
 11
123.3889130075
 21
53.0702441533
 31
0.0
  0
LINE
  5
43A
330
34B
100
AcDbEntity
  8
6802440
  6
Continuous
 62
     7
100
AcDbLine
 10
123.3889130075
 20
53.0702441533
 30
0.0
 11
122.1389130075
 21
53.0702441533
 31
0.0
  0
LINE
  5
43B
330
34B
100
AcDbEntity
  8
6802440
  6
Continuous
 62
     7
100
AcDbLine
 10
122.1389130075
 20
53.0702441533
 30
0.0
 11
122.1389130075
 21
51.8202441533
 31
0.0
  0
LINE
  5
43C
330
34B
100
AcDbEntity
  8
6802440
  6
Continuous
 62
     7
100
AcDbLine
 10
122.1389130075
 20
49.8202441533
 30
0.0
 11
123.3889130075
 21
49.8202441533
 31
0.0
  0
LINE
  5
43D
330
34B
100
AcDbEntity
  8
6802440
  6
Continuous
 62
     7
100
AcDbLine
 10
123.3889130075
 20
49.8202441533
 30
0.0
 11
123.3889130075
 21
51.0702441533
 31
0.0
  0
LINE
  5
43E
330
34B
100
AcDbEntity
  8
6802440
  6
Continuous
 62
     7
100
AcDbLine
 10
123.3889130075
 20
51.0702441533
 30
0.0
 11
122.1389130075
 21
51.0702441533
 31
0.0
  0
LINE
  5
43F
330
34B
100
AcDbEntity
  8
6802440
  6
Continuous
 62
     7
100
AcDbLine
 10
122.1389130075
 20
51.0702441533
 30
0.0
 11
122.1389130075
 21
49.8202441533
 31
0.0
  0
LINE
  5
440
330
34B
100
AcDbEntity
  8
6802440
  6
Continuous
 62
     7
100
AcDbLine
 10
122.1389130075
 20
47.8202441533
 30
0.0
 11
123.3889130075
 21
47.8202441533
 31
0.0
  0
LINE
  5
441
330
34B
100
AcDbEntity
  8
6802440
  6
Continuous
 62
     7
100
AcDbLine
 10
123.3889130075
 20
47.8202441533
 30
0.0
 11
123.3889130075
 21
49.0702441533
 31
0.0
  0
LINE
  5
442
330
34B
100
AcDbEntity
  8
6802440
  6
Continuous
 62
     7
100
AcDbLine
 10
123.3889130075
 20
49.0702441533
 30
0.0
 11
122.1389130075
 21
49.0702441533
 31
0.0
  0
LINE
  5
443
330
34B
100
AcDbEntity
  8
6802440
  6
Continuous
 62
     7
100
AcDbLine
 10
122.1389130075
 20
49.0702441533
 30
0.0
 11
122.1389130075
 21
47.8202441533
 31
0.0
  0
LINE
  5
444
330
34B
100
AcDbEntity
  8
6802440
  6
Continuous
 62
     7
100
AcDbLine
 10
124.7139130075
 20
55.8202441533
 30
0.0
 11
125.9639130075
 21
55.8202441533
 31
0.0
  0
LINE
  5
445
330
34B
100
AcDbEntity
  8
6802440
  6
Continuous
 62
     7
100
AcDbLine
 10
125.9639130075
 20
55.8202441533
 30
0.0
 11
125.9639130075
 21
57.0702441533
 31
0.0
  0
LINE
  5
446
330
34B
100
AcDbEntity
  8
6802440
  6
Continuous
 62
     7
100
AcDbLine
 10
125.9639130075
 20
57.0702441533
 30
0.0
 11
124.7139130075
 21
57.0702441533
 31
0.0
  0
LINE
  5
447
330
34B
100
AcDbEntity
  8
6802440
  6
Continuous
 62
     7
100
AcDbLine
 10
124.7139130075
 20
57.0702441533
 30
0.0
 11
124.7139130075
 21
55.8202441533
 31
0.0
  0
LINE
  5
448
330
34B
100
AcDbEntity
  8
6802440
  6
Continuous
 62
     7
100
AcDbLine
 10
124.7139130075
 20
53.8202441533
 30
0.0
 11
125.9639130075
 21
53.8202441533
 31
0.0
  0
LINE
  5
449
330
34B
100
AcDbEntity
  8
6802440
  6
Continuous
 62
     7
100
AcDbLine
 10
125.9639130075
 20
53.8202441533
 30
0.0
 11
125.9639130075
 21
55.0702441533
 31
0.0
  0
LINE
  5
44A
330
34B
100
AcDbEntity
  8
6802440
  6
Continuous
 62
     7
100
AcDbLine
 10
125.9639130075
 20
55.0702441533
 30
0.0
 11
124.7139130075
 21
55.0702441533
 31
0.0
  0
LINE
  5
44B
330
34B
100
AcDbEntity
  8
6802440
  6
Continuous
 62
     7
100
AcDbLine
 10
124.7139130075
 20
55.0702441533
 30
0.0
 11
124.7139130075
 21
53.8202441533
 31
0.0
  0
LINE
  5
44C
330
34B
100
AcDbEntity
  8
6802440
  6
Continuous
 62
     7
100
AcDbLine
 10
124.7139130075
 20
51.8202441533
 30
0.0
 11
125.9639130075
 21
51.8202441533
 31
0.0
  0
LINE
  5
44D
330
34B
100
AcDbEntity
  8
6802440
  6
Continuous
 62
     7
100
AcDbLine
 10
125.9639130075
 20
51.8202441533
 30
0.0
 11
125.9639130075
 21
53.0702441533
 31
0.0
  0
LINE
  5
44E
330
34B
100
AcDbEntity
  8
6802440
  6
Continuous
 62
     7
100
AcDbLine
 10
125.9639130075
 20
53.0702441533
 30
0.0
 11
124.7139130075
 21
53.0702441533
 31
0.0
  0
LINE
  5
44F
330
34B
100
AcDbEntity
  8
6802440
  6
Continuous
 62
     7
100
AcDbLine
 10
124.7139130075
 20
53.0702441533
 30
0.0
 11
124.7139130075
 21
51.8202441533
 31
0.0
  0
LINE
  5
450
330
34B
100
AcDbEntity
  8
6802440
  6
Continuous
 62
     7
100
AcDbLine
 10
124.7139130075
 20
49.8202441533
 30
0.0
 11
125.9639130075
 21
49.8202441533
 31
0.0
  0
LINE
  5
451
330
34B
100
AcDbEntity
  8
6802440
  6
Continuous
 62
     7
100
AcDbLine
 10
125.9639130075
 20
49.8202441533
 30
0.0
 11
125.9639130075
 21
51.0702441533
 31
0.0
  0
LINE
  5
452
330
34B
100
AcDbEntity
  8
6802440
  6
Continuous
 62
     7
100
AcDbLine
 10
125.9639130075
 20
51.0702441533
 30
0.0
 11
124.7139130075
 21
51.0702441533
 31
0.0
  0
LINE
  5
453
330
34B
100
AcDbEntity
  8
6802440
  6
Continuous
 62
     7
100
AcDbLine
 10
124.7139130075
 20
51.0702441533
 30
0.0
 11
124.7139130075
 21
49.8202441533
 31
0.0
  0
LINE
  5
454
330
34B
100
AcDbEntity
  8
6802440
  6
Continuous
 62
     7
100
AcDbLine
 10
124.7139130075
 20
47.8202441533
 30
0.0
 11
125.9639130075
 21
47.8202441533
 31
0.0
  0
LINE
  5
455
330
34B
100
AcDbEntity
  8
6802440
  6
Continuous
 62
     7
100
AcDbLine
 10
125.9639130075
 20
47.8202441533
 30
0.0
 11
125.9639130075
 21
49.0702441533
 31
0.0
  0
LINE
  5
456
330
34B
100
AcDbEntity
  8
6802440
  6
Continuous
 62
     7
100
AcDbLine
 10
125.9639130075
 20
49.0702441533
 30
0.0
 11
124.7139130075
 21
49.0702441533
 31
0.0
  0
LINE
  5
457
330
34B
100
AcDbEntity
  8
6802440
  6
Continuous
 62
     7
100
AcDbLine
 10
124.7139130075
 20
49.0702441533
 30
0.0
 11
124.7139130075
 21
47.8202441533
 31
0.0
  0
LINE
  5
458
330
34B
100
AcDbEntity
  8
6802440
  6
Continuous
 62
     7
100
AcDbLine
 10
127.2889130075
 20
55.8202441533
 30
0.0
 11
128.5389130075
 21
55.8202441533
 31
0.0
  0
LINE
  5
459
330
34B
100
AcDbEntity
  8
6802440
  6
Continuous
 62
     7
100
AcDbLine
 10
128.5389130075
 20
55.8202441533
 30
0.0
 11
128.5389130075
 21
57.0702441533
 31
0.0
  0
LINE
  5
45A
330
34B
100
AcDbEntity
  8
6802440
  6
Continuous
 62
     7
100
AcDbLine
 10
128.5389130075
 20
57.0702441533
 30
0.0
 11
127.2889130075
 21
57.0702441533
 31
0.0
  0
LINE
  5
45B
330
34B
100
AcDbEntity
  8
6802440
  6
Continuous
 62
     7
100
AcDbLine
 10
127.2889130075
 20
57.0702441533
 30
0.0
 11
127.2889130075
 21
55.8202441533
 31
0.0
  0
LINE
  5
45C
330
34B
100
AcDbEntity
  8
6802440
  6
Continuous
 62
     7
100
AcDbLine
 10
127.2889130075
 20
53.8202441533
 30
0.0
 11
128.5389130075
 21
53.8202441533
 31
0.0
  0
LINE
  5
45D
330
34B
100
AcDbEntity
  8
6802440
  6
Continuous
 62
     7
100
AcDbLine
 10
128.5389130075
 20
53.8202441533
 30
0.0
 11
128.5389130075
 21
55.0702441533
 31
0.0
  0
LINE
  5
45E
330
34B
100
AcDbEntity
  8
6802440
  6
Continuous
 62
     7
100
AcDbLine
 10
128.5389130075
 20
55.0702441533
 30
0.0
 11
127.2889130075
 21
55.0702441533
 31
0.0
  0
LINE
  5
45F
330
34B
100
AcDbEntity
  8
6802440
  6
Continuous
 62
     7
100
AcDbLine
 10
127.2889130075
 20
55.0702441533
 30
0.0
 11
127.2889130075
 21
53.8202441533
 31
0.0
  0
LINE
  5
460
330
34B
100
AcDbEntity
  8
6802440
  6
Continuous
 62
     7
100
AcDbLine
 10
127.2889130075
 20
51.8202441533
 30
0.0
 11
128.5389130075
 21
51.8202441533
 31
0.0
  0
LINE
  5
461
330
34B
100
AcDbEntity
  8
6802440
  6
Continuous
 62
     7
100
AcDbLine
 10
128.5389130075
 20
51.8202441533
 30
0.0
 11
128.5389130075
 21
53.0702441533
 31
0.0
  0
LINE
  5
462
330
34B
100
AcDbEntity
  8
6802440
  6
Continuous
 62
     7
100
AcDbLine
 10
128.5389130075
 20
53.0702441533
 30
0.0
 11
127.2889130075
 21
53.0702441533
 31
0.0
  0
LINE
  5
463
330
34B
100
AcDbEntity
  8
6802440
  6
Continuous
 62
     7
100
AcDbLine
 10
127.2889130075
 20
53.0702441533
 30
0.0
 11
127.2889130075
 21
51.8202441533
 31
0.0
  0
LINE
  5
464
330
34B
100
AcDbEntity
  8
6802440
  6
Continuous
 62
     7
100
AcDbLine
 10
127.2889130075
 20
49.8202441533
 30
0.0
 11
128.5389130075
 21
49.8202441533
 31
0.0
  0
LINE
  5
465
330
34B
100
AcDbEntity
  8
6802440
  6
Continuous
 62
     7
100
AcDbLine
 10
128.5389130075
 20
49.8202441533
 30
0.0
 11
128.5389130075
 21
51.0702441533
 31
0.0
  0
LINE
  5
466
330
34B
100
AcDbEntity
  8
6802440
  6
Continuous
 62
     7
100
AcDbLine
 10
128.5389130075
 20
51.0702441533
 30
0.0
 11
127.2889130075
 21
51.0702441533
 31
0.0
  0
LINE
  5
467
330
34B
100
AcDbEntity
  8
6802440
  6
Continuous
 62
     7
100
AcDbLine
 10
127.2889130075
 20
51.0702441533
 30
0.0
 11
127.2889130075
 21
49.8202441533
 31
0.0
  0
LINE
  5
468
330
34B
100
AcDbEntity
  8
6802440
  6
Continuous
 62
     7
100
AcDbLine
 10
127.2889130075
 20
47.8202441533
 30
0.0
 11
128.5389130075
 21
47.8202441533
 31
0.0
  0
LINE
  5
469
330
34B
100
AcDbEntity
  8
6802440
  6
Continuous
 62
     7
100
AcDbLine
 10
128.5389130075
 20
47.8202441533
 30
0.0
 11
128.5389130075
 21
49.0702441533
 31
0.0
  0
LINE
  5
46A
330
34B
100
AcDbEntity
  8
6802440
  6
Continuous
 62
     7
100
AcDbLine
 10
128.5389130075
 20
49.0702441533
 30
0.0
 11
127.2889130075
 21
49.0702441533
 31
0.0
  0
LINE
  5
46B
330
34B
100
AcDbEntity
  8
6802440
  6
Continuous
 62
     7
100
AcDbLine
 10
127.2889130075
 20
49.0702441533
 30
0.0
 11
127.2889130075
 21
47.8202441533
 31
0.0
  0
LINE
  5
46C
330
34B
100
AcDbEntity
  8
6802440
  6
Continuous
 62
     7
100
AcDbLine
 10
129.8639130075
 20
55.8202441533
 30
0.0
 11
131.1139130075
 21
55.8202441533
 31
0.0
  0
LINE
  5
46D
330
34B
100
AcDbEntity
  8
6802440
  6
Continuous
 62
     7
100
AcDbLine
 10
131.1139130075
 20
55.8202441533
 30
0.0
 11
131.1139130075
 21
57.0702441533
 31
0.0
  0
LINE
  5
46E
330
34B
100
AcDbEntity
  8
6802440
  6
Continuous
 62
     7
100
AcDbLine
 10
131.1139130075
 20
57.0702441533
 30
0.0
 11
129.8639130075
 21
57.0702441533
 31
0.0
  0
LINE
  5
46F
330
34B
100
AcDbEntity
  8
6802440
  6
Continuous
 62
     7
100
AcDbLine
 10
129.8639130075
 20
57.0702441533
 30
0.0
 11
129.8639130075
 21
55.8202441533
 31
0.0
  0
LINE
  5
470
330
34B
100
AcDbEntity
  8
6802440
  6
Continuous
 62
     7
100
AcDbLine
 10
129.8639130075
 20
53.8202441533
 30
0.0
 11
131.1139130075
 21
53.8202441533
 31
0.0
  0
LINE
  5
471
330
34B
100
AcDbEntity
  8
6802440
  6
Continuous
 62
     7
100
AcDbLine
 10
131.1139130075
 20
53.8202441533
 30
0.0
 11
131.1139130075
 21
55.0702441533
 31
0.0
  0
LINE
  5
472
330
34B
100
AcDbEntity
  8
6802440
  6
Continuous
 62
     7
100
AcDbLine
 10
131.1139130075
 20
55.0702441533
 30
0.0
 11
129.8639130075
 21
55.0702441533
 31
0.0
  0
LINE
  5
473
330
34B
100
AcDbEntity
  8
6802440
  6
Continuous
 62
     7
100
AcDbLine
 10
129.8639130075
 20
55.0702441533
 30
0.0
 11
129.8639130075
 21
53.8202441533
 31
0.0
  0
LINE
  5
474
330
34B
100
AcDbEntity
  8
6802440
  6
Continuous
 62
     7
100
AcDbLine
 10
129.8639130075
 20
51.8202441533
 30
0.0
 11
131.1139130075
 21
51.8202441533
 31
0.0
  0
LINE
  5
475
330
34B
100
AcDbEntity
  8
6802440
  6
Continuous
 62
     7
100
AcDbLine
 10
131.1139130075
 20
51.8202441533
 30
0.0
 11
131.1139130075
 21
53.0702441533
 31
0.0
  0
LINE
  5
476
330
34B
100
AcDbEntity
  8
6802440
  6
Continuous
 62
     7
100
AcDbLine
 10
131.1139130075
 20
53.0702441533
 30
0.0
 11
129.8639130075
 21
53.0702441533
 31
0.0
  0
LINE
  5
477
330
34B
100
AcDbEntity
  8
6802440
  6
Continuous
 62
     7
100
AcDbLine
 10
129.8639130075
 20
53.0702441533
 30
0.0
 11
129.8639130075
 21
51.8202441533
 31
0.0
  0
LINE
  5
478
330
34B
100
AcDbEntity
  8
6802440
  6
Continuous
 62
     7
100
AcDbLine
 10
129.8639130075
 20
49.8202441533
 30
0.0
 11
131.1139130075
 21
49.8202441533
 31
0.0
  0
LINE
  5
479
330
34B
100
AcDbEntity
  8
6802440
  6
Continuous
 62
     7
100
AcDbLine
 10
131.1139130075
 20
49.8202441533
 30
0.0
 11
131.1139130075
 21
51.0702441533
 31
0.0
  0
LINE
  5
47A
330
34B
100
AcDbEntity
  8
6802440
  6
Continuous
 62
     7
100
AcDbLine
 10
131.1139130075
 20
51.0702441533
 30
0.0
 11
129.8639130075
 21
51.0702441533
 31
0.0
  0
LINE
  5
47B
330
34B
100
AcDbEntity
  8
6802440
  6
Continuous
 62
     7
100
AcDbLine
 10
129.8639130075
 20
51.0702441533
 30
0.0
 11
129.8639130075
 21
49.8202441533
 31
0.0
  0
LINE
  5
47C
330
34B
100
AcDbEntity
  8
6802440
  6
Continuous
 62
     7
100
AcDbLine
 10
129.8639130075
 20
47.8202441533
 30
0.0
 11
131.1139130075
 21
47.8202441533
 31
0.0
  0
LINE
  5
47D
330
34B
100
AcDbEntity
  8
6802440
  6
Continuous
 62
     7
100
AcDbLine
 10
131.1139130075
 20
47.8202441533
 30
0.0
 11
131.1139130075
 21
49.0702441533
 31
0.0
  0
LINE
  5
47E
330
34B
100
AcDbEntity
  8
6802440
  6
Continuous
 62
     7
100
AcDbLine
 10
131.1139130075
 20
49.0702441533
 30
0.0
 11
129.8639130075
 21
49.0702441533
 31
0.0
  0
LINE
  5
47F
330
34B
100
AcDbEntity
  8
6802440
  6
Continuous
 62
     7
100
AcDbLine
 10
129.8639130075
 20
49.0702441533
 30
0.0
 11
129.8639130075
 21
47.8202441533
 31
0.0
  0
LINE
  5
480
330
34B
100
AcDbEntity
  8
6802440
  6
Continuous
 62
     7
100
AcDbLine
 10
132.4389130075
 20
55.8202441533
 30
0.0
 11
133.6889130075
 21
55.8202441533
 31
0.0
  0
LINE
  5
481
330
34B
100
AcDbEntity
  8
6802440
  6
Continuous
 62
     7
100
AcDbLine
 10
133.6889130075
 20
55.8202441533
 30
0.0
 11
133.6889130075
 21
57.0702441533
 31
0.0
  0
LINE
  5
482
330
34B
100
AcDbEntity
  8
6802440
  6
Continuous
 62
     7
100
AcDbLine
 10
133.6889130075
 20
57.0702441533
 30
0.0
 11
132.4389130075
 21
57.0702441533
 31
0.0
  0
LINE
  5
483
330
34B
100
AcDbEntity
  8
6802440
  6
Continuous
 62
     7
100
AcDbLine
 10
132.4389130075
 20
57.0702441533
 30
0.0
 11
132.4389130075
 21
55.8202441533
 31
0.0
  0
LINE
  5
484
330
34B
100
AcDbEntity
  8
6802440
  6
Continuous
 62
     7
100
AcDbLine
 10
132.4389130075
 20
53.8202441533
 30
0.0
 11
133.6889130075
 21
53.8202441533
 31
0.0
  0
LINE
  5
485
330
34B
100
AcDbEntity
  8
6802440
  6
Continuous
 62
     7
100
AcDbLine
 10
133.6889130075
 20
53.8202441533
 30
0.0
 11
133.6889130075
 21
55.0702441533
 31
0.0
  0
LINE
  5
486
330
34B
100
AcDbEntity
  8
6802440
  6
Continuous
 62
     7
100
AcDbLine
 10
133.6889130075
 20
55.0702441533
 30
0.0
 11
132.4389130075
 21
55.0702441533
 31
0.0
  0
LINE
  5
487
330
34B
100
AcDbEntity
  8
6802440
  6
Continuous
 62
     7
100
AcDbLine
 10
132.4389130075
 20
55.0702441533
 30
0.0
 11
132.4389130075
 21
53.8202441533
 31
0.0
  0
LINE
  5
488
330
34B
100
AcDbEntity
  8
6802440
  6
Continuous
 62
     7
100
AcDbLine
 10
132.4389130075
 20
51.8202441533
 30
0.0
 11
133.6889130075
 21
51.8202441533
 31
0.0
  0
LINE
  5
489
330
34B
100
AcDbEntity
  8
6802440
  6
Continuous
 62
     7
100
AcDbLine
 10
133.6889130075
 20
51.8202441533
 30
0.0
 11
133.6889130075
 21
53.0702441533
 31
0.0
  0
LINE
  5
48A
330
34B
100
AcDbEntity
  8
6802440
  6
Continuous
 62
     7
100
AcDbLine
 10
133.6889130075
 20
53.0702441533
 30
0.0
 11
132.4389130075
 21
53.0702441533
 31
0.0
  0
LINE
  5
48B
330
34B
100
AcDbEntity
  8
6802440
  6
Continuous
 62
     7
100
AcDbLine
 10
132.4389130075
 20
53.0702441533
 30
0.0
 11
132.4389130075
 21
51.8202441533
 31
0.0
  0
LINE
  5
48C
330
34B
100
AcDbEntity
  8
6802440
  6
Continuous
 62
     7
100
AcDbLine
 10
132.4389130075
 20
49.8202441533
 30
0.0
 11
133.6889130075
 21
49.8202441533
 31
0.0
  0
LINE
  5
48D
330
34B
100
AcDbEntity
  8
6802440
  6
Continuous
 62
     7
100
AcDbLine
 10
133.6889130075
 20
49.8202441533
 30
0.0
 11
133.6889130075
 21
51.0702441533
 31
0.0
  0
LINE
  5
48E
330
34B
100
AcDbEntity
  8
6802440
  6
Continuous
 62
     7
100
AcDbLine
 10
133.6889130075
 20
51.0702441533
 30
0.0
 11
132.4389130075
 21
51.0702441533
 31
0.0
  0
LINE
  5
48F
330
34B
100
AcDbEntity
  8
6802440
  6
Continuous
 62
     7
100
AcDbLine
 10
132.4389130075
 20
51.0702441533
 30
0.0
 11
132.4389130075
 21
49.8202441533
 31
0.0
  0
LINE
  5
490
330
34B
100
AcDbEntity
  8
6802440
  6
Continuous
 62
     7
100
AcDbLine
 10
132.4389130075
 20
47.8202441533
 30
0.0
 11
133.6889130075
 21
47.8202441533
 31
0.0
  0
LINE
  5
491
330
34B
100
AcDbEntity
  8
6802440
  6
Continuous
 62
     7
100
AcDbLine
 10
133.6889130075
 20
47.8202441533
 30
0.0
 11
133.6889130075
 21
49.0702441533
 31
0.0
  0
LINE
  5
492
330
34B
100
AcDbEntity
  8
6802440
  6
Continuous
 62
     7
100
AcDbLine
 10
133.6889130075
 20
49.0702441533
 30
0.0
 11
132.4389130075
 21
49.0702441533
 31
0.0
  0
LINE
  5
493
330
34B
100
AcDbEntity
  8
6802440
  6
Continuous
 62
     7
100
AcDbLine
 10
132.4389130075
 20
49.0702441533
 30
0.0
 11
132.4389130075
 21
47.8202441533
 31
0.0
  0
LINE
  5
494
330
34B
100
AcDbEntity
  8
6802440
  6
Continuous
 62
     7
100
AcDbLine
 10
135.0139130075
 20
55.8202441533
 30
0.0
 11
136.2639130075
 21
55.8202441533
 31
0.0
  0
LINE
  5
495
330
34B
100
AcDbEntity
  8
6802440
  6
Continuous
 62
     7
100
AcDbLine
 10
136.2639130075
 20
55.8202441533
 30
0.0
 11
136.2639130075
 21
57.0702441533
 31
0.0
  0
LINE
  5
496
330
34B
100
AcDbEntity
  8
6802440
  6
Continuous
 62
     7
100
AcDbLine
 10
136.2639130075
 20
57.0702441533
 30
0.0
 11
135.0139130075
 21
57.0702441533
 31
0.0
  0
LINE
  5
497
330
34B
100
AcDbEntity
  8
6802440
  6
Continuous
 62
     7
100
AcDbLine
 10
135.0139130075
 20
57.0702441533
 30
0.0
 11
135.0139130075
 21
55.8202441533
 31
0.0
  0
LINE
  5
498
330
34B
100
AcDbEntity
  8
6802440
  6
Continuous
 62
     7
100
AcDbLine
 10
135.0139130075
 20
53.8202441533
 30
0.0
 11
136.2639130075
 21
53.8202441533
 31
0.0
  0
LINE
  5
499
330
34B
100
AcDbEntity
  8
6802440
  6
Continuous
 62
     7
100
AcDbLine
 10
136.2639130075
 20
53.8202441533
 30
0.0
 11
136.2639130075
 21
55.0702441533
 31
0.0
  0
LINE
  5
49A
330
34B
100
AcDbEntity
  8
6802440
  6
Continuous
 62
     7
100
AcDbLine
 10
136.2639130075
 20
55.0702441533
 30
0.0
 11
135.0139130075
 21
55.0702441533
 31
0.0
  0
LINE
  5
49B
330
34B
100
AcDbEntity
  8
6802440
  6
Continuous
 62
     7
100
AcDbLine
 10
135.0139130075
 20
55.0702441533
 30
0.0
 11
135.0139130075
 21
53.8202441533
 31
0.0
  0
LINE
  5
49C
330
34B
100
AcDbEntity
  8
6802440
  6
Continuous
 62
     7
100
AcDbLine
 10
135.0139130075
 20
51.8202441533
 30
0.0
 11
136.2639130075
 21
51.8202441533
 31
0.0
  0
LINE
  5
49D
330
34B
100
AcDbEntity
  8
6802440
  6
Continuous
 62
     7
100
AcDbLine
 10
136.2639130075
 20
51.8202441533
 30
0.0
 11
136.2639130075
 21
53.0702441533
 31
0.0
  0
LINE
  5
49E
330
34B
100
AcDbEntity
  8
6802440
  6
Continuous
 62
     7
100
AcDbLine
 10
136.2639130075
 20
53.0702441533
 30
0.0
 11
135.0139130075
 21
53.0702441533
 31
0.0
  0
LINE
  5
49F
330
34B
100
AcDbEntity
  8
6802440
  6
Continuous
 62
     7
100
AcDbLine
 10
135.0139130075
 20
53.0702441533
 30
0.0
 11
135.0139130075
 21
51.8202441533
 31
0.0
  0
LINE
  5
4A0
330
34B
100
AcDbEntity
  8
6802440
  6
Continuous
 62
     7
100
AcDbLine
 10
135.0139130075
 20
49.8202441533
 30
0.0
 11
136.2639130075
 21
49.8202441533
 31
0.0
  0
LINE
  5
4A1
330
34B
100
AcDbEntity
  8
6802440
  6
Continuous
 62
     7
100
AcDbLine
 10
136.2639130075
 20
49.8202441533
 30
0.0
 11
136.2639130075
 21
51.0702441533
 31
0.0
  0
LINE
  5
4A2
330
34B
100
AcDbEntity
  8
6802440
  6
Continuous
 62
     7
100
AcDbLine
 10
136.2639130075
 20
51.0702441533
 30
0.0
 11
135.0139130075
 21
51.0702441533
 31
0.0
  0
LINE
  5
4A3
330
34B
100
AcDbEntity
  8
6802440
  6
Continuous
 62
     7
100
AcDbLine
 10
135.0139130075
 20
51.0702441533
 30
0.0
 11
135.0139130075
 21
49.8202441533
 31
0.0
  0
LINE
  5
4A4
330
34B
100
AcDbEntity
  8
6802440
  6
Continuous
 62
     7
100
AcDbLine
 10
135.0139130075
 20
47.8202441533
 30
0.0
 11
136.2639130075
 21
47.8202441533
 31
0.0
  0
LINE
  5
4A5
330
34B
100
AcDbEntity
  8
6802440
  6
Continuous
 62
     7
100
AcDbLine
 10
136.2639130075
 20
47.8202441533
 30
0.0
 11
136.2639130075
 21
49.0702441533
 31
0.0
  0
LINE
  5
4A6
330
34B
100
AcDbEntity
  8
6802440
  6
Continuous
 62
     7
100
AcDbLine
 10
136.2639130075
 20
49.0702441533
 30
0.0
 11
135.0139130075
 21
49.0702441533
 31
0.0
  0
LINE
  5
4A7
330
34B
100
AcDbEntity
  8
6802440
  6
Continuous
 62
     7
100
AcDbLine
 10
135.0139130075
 20
49.0702441533
 30
0.0
 11
135.0139130075
 21
47.8202441533
 31
0.0
  0
LINE
  5
4A8
330
34B
100
AcDbEntity
  8
6802440
  6
Continuous
 62
     7
100
AcDbLine
 10
137.5889130075
 20
55.8202441533
 30
0.0
 11
138.8389130075
 21
55.8202441533
 31
0.0
  0
LINE
  5
4A9
330
34B
100
AcDbEntity
  8
6802440
  6
Continuous
 62
     7
100
AcDbLine
 10
138.8389130075
 20
55.8202441533
 30
0.0
 11
138.8389130075
 21
57.0702441533
 31
0.0
  0
LINE
  5
4AA
330
34B
100
AcDbEntity
  8
6802440
  6
Continuous
 62
     7
100
AcDbLine
 10
138.8389130075
 20
57.0702441533
 30
0.0
 11
137.5889130075
 21
57.0702441533
 31
0.0
  0
LINE
  5
4AB
330
34B
100
AcDbEntity
  8
6802440
  6
Continuous
 62
     7
100
AcDbLine
 10
137.5889130075
 20
57.0702441533
 30
0.0
 11
137.5889130075
 21
55.8202441533
 31
0.0
  0
LINE
  5
4AC
330
34B
100
AcDbEntity
  8
6802440
  6
Continuous
 62
     7
100
AcDbLine
 10
137.5889130075
 20
53.8202441533
 30
0.0
 11
138.8389130075
 21
53.8202441533
 31
0.0
  0
LINE
  5
4AD
330
34B
100
AcDbEntity
  8
6802440
  6
Continuous
 62
     7
100
AcDbLine
 10
138.8389130075
 20
53.8202441533
 30
0.0
 11
138.8389130075
 21
55.0702441533
 31
0.0
  0
LINE
  5
4AE
330
34B
100
AcDbEntity
  8
6802440
  6
Continuous
 62
     7
100
AcDbLine
 10
138.8389130075
 20
55.0702441533
 30
0.0
 11
137.5889130075
 21
55.0702441533
 31
0.0
  0
LINE
  5
4AF
330
34B
100
AcDbEntity
  8
6802440
  6
Continuous
 62
     7
100
AcDbLine
 10
137.5889130075
 20
55.0702441533
 30
0.0
 11
137.5889130075
 21
53.8202441533
 31
0.0
  0
LINE
  5
4B0
330
34B
100
AcDbEntity
  8
6802440
  6
Continuous
 62
     7
100
AcDbLine
 10
137.5889130075
 20
51.8202441533
 30
0.0
 11
138.8389130075
 21
51.8202441533
 31
0.0
  0
LINE
  5
4B1
330
34B
100
AcDbEntity
  8
6802440
  6
Continuous
 62
     7
100
AcDbLine
 10
138.8389130075
 20
51.8202441533
 30
0.0
 11
138.8389130075
 21
53.0702441533
 31
0.0
  0
LINE
  5
4B2
330
34B
100
AcDbEntity
  8
6802440
  6
Continuous
 62
     7
100
AcDbLine
 10
138.8389130075
 20
53.0702441533
 30
0.0
 11
137.5889130075
 21
53.0702441533
 31
0.0
  0
LINE
  5
4B3
330
34B
100
AcDbEntity
  8
6802440
  6
Continuous
 62
     7
100
AcDbLine
 10
137.5889130075
 20
53.0702441533
 30
0.0
 11
137.5889130075
 21
51.8202441533
 31
0.0
  0
LINE
  5
4B4
330
34B
100
AcDbEntity
  8
6802440
  6
Continuous
 62
     7
100
AcDbLine
 10
137.5889130075
 20
49.8202441533
 30
0.0
 11
138.8389130075
 21
49.8202441533
 31
0.0
  0
LINE
  5
4B5
330
34B
100
AcDbEntity
  8
6802440
  6
Continuous
 62
     7
100
AcDbLine
 10
138.8389130075
 20
49.8202441533
 30
0.0
 11
138.8389130075
 21
51.0702441533
 31
0.0
  0
LINE
  5
4B6
330
34B
100
AcDbEntity
  8
6802440
  6
Continuous
 62
     7
100
AcDbLine
 10
138.8389130075
 20
51.0702441533
 30
0.0
 11
137.5889130075
 21
51.0702441533
 31
0.0
  0
LINE
  5
4B7
330
34B
100
AcDbEntity
  8
6802440
  6
Continuous
 62
     7
100
AcDbLine
 10
137.5889130075
 20
51.0702441533
 30
0.0
 11
137.5889130075
 21
49.8202441533
 31
0.0
  0
LINE
  5
4B8
330
34B
100
AcDbEntity
  8
6802440
  6
Continuous
 62
     7
100
AcDbLine
 10
137.5889130075
 20
47.8202441533
 30
0.0
 11
138.8389130075
 21
47.8202441533
 31
0.0
  0
LINE
  5
4B9
330
34B
100
AcDbEntity
  8
6802440
  6
Continuous
 62
     7
100
AcDbLine
 10
138.8389130075
 20
47.8202441533
 30
0.0
 11
138.8389130075
 21
49.0702441533
 31
0.0
  0
LINE
  5
4BA
330
34B
100
AcDbEntity
  8
6802440
  6
Continuous
 62
     7
100
AcDbLine
 10
138.8389130075
 20
49.0702441533
 30
0.0
 11
137.5889130075
 21
49.0702441533
 31
0.0
  0
LINE
  5
4BB
330
34B
100
AcDbEntity
  8
6802440
  6
Continuous
 62
     7
100
AcDbLine
 10
137.5889130075
 20
49.0702441533
 30
0.0
 11
137.5889130075
 21
47.8202441533
 31
0.0
  0
LINE
  5
4BC
330
34B
100
AcDbEntity
  8
6802440
  6
Continuous
 62
     7
100
AcDbLine
 10
140.1639130075
 20
55.8202441533
 30
0.0
 11
141.4139130075
 21
55.8202441533
 31
0.0
  0
LINE
  5
4BD
330
34B
100
AcDbEntity
  8
6802440
  6
Continuous
 62
     7
100
AcDbLine
 10
141.4139130075
 20
55.8202441533
 30
0.0
 11
141.4139130075
 21
57.0702441533
 31
0.0
  0
LINE
  5
4BE
330
34B
100
AcDbEntity
  8
6802440
  6
Continuous
 62
     7
100
AcDbLine
 10
141.4139130075
 20
57.0702441533
 30
0.0
 11
140.1639130075
 21
57.0702441533
 31
0.0
  0
LINE
  5
4BF
330
34B
100
AcDbEntity
  8
6802440
  6
Continuous
 62
     7
100
AcDbLine
 10
140.1639130075
 20
57.0702441533
 30
0.0
 11
140.1639130075
 21
55.8202441533
 31
0.0
  0
LINE
  5
4C0
330
34B
100
AcDbEntity
  8
6802440
  6
Continuous
 62
     7
100
AcDbLine
 10
140.1639130075
 20
53.8202441533
 30
0.0
 11
141.4139130075
 21
53.8202441533
 31
0.0
  0
LINE
  5
4C1
330
34B
100
AcDbEntity
  8
6802440
  6
Continuous
 62
     7
100
AcDbLine
 10
141.4139130075
 20
53.8202441533
 30
0.0
 11
141.4139130075
 21
55.0702441533
 31
0.0
  0
LINE
  5
4C2
330
34B
100
AcDbEntity
  8
6802440
  6
Continuous
 62
     7
100
AcDbLine
 10
141.4139130075
 20
55.0702441533
 30
0.0
 11
140.1639130075
 21
55.0702441533
 31
0.0
  0
LINE
  5
4C3
330
34B
100
AcDbEntity
  8
6802440
  6
Continuous
 62
     7
100
AcDbLine
 10
140.1639130075
 20
55.0702441533
 30
0.0
 11
140.1639130075
 21
53.8202441533
 31
0.0
  0
LINE
  5
4C4
330
34B
100
AcDbEntity
  8
6802440
  6
Continuous
 62
     7
100
AcDbLine
 10
140.1639130075
 20
51.8202441533
 30
0.0
 11
141.4139130075
 21
51.8202441533
 31
0.0
  0
LINE
  5
4C5
330
34B
100
AcDbEntity
  8
6802440
  6
Continuous
 62
     7
100
AcDbLine
 10
141.4139130075
 20
51.8202441533
 30
0.0
 11
141.4139130075
 21
53.0702441533
 31
0.0
  0
LINE
  5
4C6
330
34B
100
AcDbEntity
  8
6802440
  6
Continuous
 62
     7
100
AcDbLine
 10
141.4139130075
 20
53.0702441533
 30
0.0
 11
140.1639130075
 21
53.0702441533
 31
0.0
  0
LINE
  5
4C7
330
34B
100
AcDbEntity
  8
6802440
  6
Continuous
 62
     7
100
AcDbLine
 10
140.1639130075
 20
53.0702441533
 30
0.0
 11
140.1639130075
 21
51.8202441533
 31
0.0
  0
LINE
  5
4C8
330
34B
100
AcDbEntity
  8
6802440
  6
Continuous
 62
     7
100
AcDbLine
 10
140.1639130075
 20
49.8202441533
 30
0.0
 11
141.4139130075
 21
49.8202441533
 31
0.0
  0
LINE
  5
4C9
330
34B
100
AcDbEntity
  8
6802440
  6
Continuous
 62
     7
100
AcDbLine
 10
141.4139130075
 20
49.8202441533
 30
0.0
 11
141.4139130075
 21
51.0702441533
 31
0.0
  0
LINE
  5
4CA
330
34B
100
AcDbEntity
  8
6802440
  6
Continuous
 62
     7
100
AcDbLine
 10
141.4139130075
 20
51.0702441533
 30
0.0
 11
140.1639130075
 21
51.0702441533
 31
0.0
  0
LINE
  5
4CB
330
34B
100
AcDbEntity
  8
6802440
  6
Continuous
 62
     7
100
AcDbLine
 10
140.1639130075
 20
51.0702441533
 30
0.0
 11
140.1639130075
 21
49.8202441533
 31
0.0
  0
LINE
  5
4CC
330
34B
100
AcDbEntity
  8
6802440
  6
Continuous
 62
     7
100
AcDbLine
 10
140.1639130075
 20
47.8202441533
 30
0.0
 11
141.4139130075
 21
47.8202441533
 31
0.0
  0
LINE
  5
4CD
330
34B
100
AcDbEntity
  8
6802440
  6
Continuous
 62
     7
100
AcDbLine
 10
141.4139130075
 20
47.8202441533
 30
0.0
 11
141.4139130075
 21
49.0702441533
 31
0.0
  0
LINE
  5
4CE
330
34B
100
AcDbEntity
  8
6802440
  6
Continuous
 62
     7
100
AcDbLine
 10
141.4139130075
 20
49.0702441533
 30
0.0
 11
140.1639130075
 21
49.0702441533
 31
0.0
  0
LINE
  5
4CF
330
34B
100
AcDbEntity
  8
6802440
  6
Continuous
 62
     7
100
AcDbLine
 10
140.1639130075
 20
49.0702441533
 30
0.0
 11
140.1639130075
 21
47.8202441533
 31
0.0
  0
LINE
  5
4D0
330
34B
100
AcDbEntity
  8
6802440
  6
Continuous
 62
     7
100
AcDbLine
 10
142.7389130075
 20
55.8202441533
 30
0.0
 11
143.9889130075
 21
55.8202441533
 31
0.0
  0
LINE
  5
4D1
330
34B
100
AcDbEntity
  8
6802440
  6
Continuous
 62
     7
100
AcDbLine
 10
143.9889130075
 20
55.8202441533
 30
0.0
 11
143.9889130075
 21
57.0702441533
 31
0.0
  0
LINE
  5
4D2
330
34B
100
AcDbEntity
  8
6802440
  6
Continuous
 62
     7
100
AcDbLine
 10
143.9889130075
 20
57.0702441533
 30
0.0
 11
142.7389130075
 21
57.0702441533
 31
0.0
  0
LINE
  5
4D3
330
34B
100
AcDbEntity
  8
6802440
  6
Continuous
 62
     7
100
AcDbLine
 10
142.7389130075
 20
57.0702441533
 30
0.0
 11
142.7389130075
 21
55.8202441533
 31
0.0
  0
LINE
  5
4D4
330
34B
100
AcDbEntity
  8
6802440
  6
Continuous
 62
     7
100
AcDbLine
 10
142.7389130075
 20
53.8202441533
 30
0.0
 11
143.9889130075
 21
53.8202441533
 31
0.0
  0
LINE
  5
4D5
330
34B
100
AcDbEntity
  8
6802440
  6
Continuous
 62
     7
100
AcDbLine
 10
143.9889130075
 20
53.8202441533
 30
0.0
 11
143.9889130075
 21
55.0702441533
 31
0.0
  0
LINE
  5
4D6
330
34B
100
AcDbEntity
  8
6802440
  6
Continuous
 62
     7
100
AcDbLine
 10
143.9889130075
 20
55.0702441533
 30
0.0
 11
142.7389130075
 21
55.0702441533
 31
0.0
  0
LINE
  5
4D7
330
34B
100
AcDbEntity
  8
6802440
  6
Continuous
 62
     7
100
AcDbLine
 10
142.7389130075
 20
55.0702441533
 30
0.0
 11
142.7389130075
 21
53.8202441533
 31
0.0
  0
LINE
  5
4D8
330
34B
100
AcDbEntity
  8
6802440
  6
Continuous
 62
     7
100
AcDbLine
 10
142.7389130075
 20
51.8202441533
 30
0.0
 11
143.9889130075
 21
51.8202441533
 31
0.0
  0
LINE
  5
4D9
330
34B
100
AcDbEntity
  8
6802440
  6
Continuous
 62
     7
100
AcDbLine
 10
143.9889130075
 20
51.8202441533
 30
0.0
 11
143.9889130075
 21
53.0702441533
 31
0.0
  0
LINE
  5
4DA
330
34B
100
AcDbEntity
  8
6802440
  6
Continuous
 62
     7
100
AcDbLine
 10
143.9889130075
 20
53.0702441533
 30
0.0
 11
142.7389130075
 21
53.0702441533
 31
0.0
  0
LINE
  5
4DB
330
34B
100
AcDbEntity
  8
6802440
  6
Continuous
 62
     7
100
AcDbLine
 10
142.7389130075
 20
53.0702441533
 30
0.0
 11
142.7389130075
 21
51.8202441533
 31
0.0
  0
LINE
  5
4DC
330
34B
100
AcDbEntity
  8
6802440
  6
Continuous
 62
     7
100
AcDbLine
 10
142.7389130075
 20
49.8202441533
 30
0.0
 11
143.9889130075
 21
49.8202441533
 31
0.0
  0
LINE
  5
4DD
330
34B
100
AcDbEntity
  8
6802440
  6
Continuous
 62
     7
100
AcDbLine
 10
143.9889130075
 20
49.8202441533
 30
0.0
 11
143.9889130075
 21
51.0702441533
 31
0.0
  0
LINE
  5
4DE
330
34B
100
AcDbEntity
  8
6802440
  6
Continuous
 62
     7
100
AcDbLine
 10
143.9889130075
 20
51.0702441533
 30
0.0
 11
142.7389130075
 21
51.0702441533
 31
0.0
  0
LINE
  5
4DF
330
34B
100
AcDbEntity
  8
6802440
  6
Continuous
 62
     7
100
AcDbLine
 10
142.7389130075
 20
51.0702441533
 30
0.0
 11
142.7389130075
 21
49.8202441533
 31
0.0
  0
LINE
  5
4E0
330
34B
100
AcDbEntity
  8
6802440
  6
Continuous
 62
     7
100
AcDbLine
 10
142.7389130075
 20
47.8202441533
 30
0.0
 11
143.9889130075
 21
47.8202441533
 31
0.0
  0
LINE
  5
4E1
330
34B
100
AcDbEntity
  8
6802440
  6
Continuous
 62
     7
100
AcDbLine
 10
143.9889130075
 20
47.8202441533
 30
0.0
 11
143.9889130075
 21
49.0702441533
 31
0.0
  0
LINE
  5
4E2
330
34B
100
AcDbEntity
  8
6802440
  6
Continuous
 62
     7
100
AcDbLine
 10
143.9889130075
 20
49.0702441533
 30
0.0
 11
142.7389130075
 21
49.0702441533
 31
0.0
  0
LINE
  5
4E3
330
34B
100
AcDbEntity
  8
6802440
  6
Continuous
 62
     7
100
AcDbLine
 10
142.7389130075
 20
49.0702441533
 30
0.0
 11
142.7389130075
 21
47.8202441533
 31
0.0
  0
LINE
  5
4E4
330
34B
100
AcDbEntity
  8
6802440
  6
Continuous
 62
     7
100
AcDbLine
 10
145.3139130075
 20
55.8202441533
 30
0.0
 11
146.5639130075
 21
55.8202441533
 31
0.0
  0
LINE
  5
4E5
330
34B
100
AcDbEntity
  8
6802440
  6
Continuous
 62
     7
100
AcDbLine
 10
146.5639130075
 20
55.8202441533
 30
0.0
 11
146.5639130075
 21
57.0702441533
 31
0.0
  0
LINE
  5
4E6
330
34B
100
AcDbEntity
  8
6802440
  6
Continuous
 62
     7
100
AcDbLine
 10
146.5639130075
 20
57.0702441533
 30
0.0
 11
145.3139130075
 21
57.0702441533
 31
0.0
  0
LINE
  5
4E7
330
34B
100
AcDbEntity
  8
6802440
  6
Continuous
 62
     7
100
AcDbLine
 10
145.3139130075
 20
57.0702441533
 30
0.0
 11
145.3139130075
 21
55.8202441533
 31
0.0
  0
LINE
  5
4E8
330
34B
100
AcDbEntity
  8
6802440
  6
Continuous
 62
     7
100
AcDbLine
 10
145.3139130075
 20
53.8202441533
 30
0.0
 11
146.5639130075
 21
53.8202441533
 31
0.0
  0
LINE
  5
4E9
330
34B
100
AcDbEntity
  8
6802440
  6
Continuous
 62
     7
100
AcDbLine
 10
146.5639130075
 20
53.8202441533
 30
0.0
 11
146.5639130075
 21
55.0702441533
 31
0.0
  0
LINE
  5
4EA
330
34B
100
AcDbEntity
  8
6802440
  6
Continuous
 62
     7
100
AcDbLine
 10
146.5639130075
 20
55.0702441533
 30
0.0
 11
145.3139130075
 21
55.0702441533
 31
0.0
  0
LINE
  5
4EB
330
34B
100
AcDbEntity
  8
6802440
  6
Continuous
 62
     7
100
AcDbLine
 10
145.3139130075
 20
55.0702441533
 30
0.0
 11
145.3139130075
 21
53.8202441533
 31
0.0
  0
LINE
  5
4EC
330
34B
100
AcDbEntity
  8
6802440
  6
Continuous
 62
     7
100
AcDbLine
 10
145.3139130075
 20
51.8202441533
 30
0.0
 11
146.5639130075
 21
51.8202441533
 31
0.0
  0
LINE
  5
4ED
330
34B
100
AcDbEntity
  8
6802440
  6
Continuous
 62
     7
100
AcDbLine
 10
146.5639130075
 20
51.8202441533
 30
0.0
 11
146.5639130075
 21
53.0702441533
 31
0.0
  0
LINE
  5
4EE
330
34B
100
AcDbEntity
  8
6802440
  6
Continuous
 62
     7
100
AcDbLine
 10
146.5639130075
 20
53.0702441533
 30
0.0
 11
145.3139130075
 21
53.0702441533
 31
0.0
  0
LINE
  5
4EF
330
34B
100
AcDbEntity
  8
6802440
  6
Continuous
 62
     7
100
AcDbLine
 10
145.3139130075
 20
53.0702441533
 30
0.0
 11
145.3139130075
 21
51.8202441533
 31
0.0
  0
LINE
  5
4F0
330
34B
100
AcDbEntity
  8
6802440
  6
Continuous
 62
     7
100
AcDbLine
 10
145.3139130075
 20
49.8202441533
 30
0.0
 11
146.5639130075
 21
49.8202441533
 31
0.0
  0
LINE
  5
4F1
330
34B
100
AcDbEntity
  8
6802440
  6
Continuous
 62
     7
100
AcDbLine
 10
146.5639130075
 20
49.8202441533
 30
0.0
 11
146.5639130075
 21
51.0702441533
 31
0.0
  0
LINE
  5
4F2
330
34B
100
AcDbEntity
  8
6802440
  6
Continuous
 62
     7
100
AcDbLine
 10
146.5639130075
 20
51.0702441533
 30
0.0
 11
145.3139130075
 21
51.0702441533
 31
0.0
  0
LINE
  5
4F3
330
34B
100
AcDbEntity
  8
6802440
  6
Continuous
 62
     7
100
AcDbLine
 10
145.3139130075
 20
51.0702441533
 30
0.0
 11
145.3139130075
 21
49.8202441533
 31
0.0
  0
LINE
  5
4F4
330
34B
100
AcDbEntity
  8
6802440
  6
Continuous
 62
     7
100
AcDbLine
 10
145.3139130075
 20
47.8202441533
 30
0.0
 11
146.5639130075
 21
47.8202441533
 31
0.0
  0
LINE
  5
4F5
330
34B
100
AcDbEntity
  8
6802440
  6
Continuous
 62
     7
100
AcDbLine
 10
146.5639130075
 20
47.8202441533
 30
0.0
 11
146.5639130075
 21
49.0702441533
 31
0.0
  0
LINE
  5
4F6
330
34B
100
AcDbEntity
  8
6802440
  6
Continuous
 62
     7
100
AcDbLine
 10
146.5639130075
 20
49.0702441533
 30
0.0
 11
145.3139130075
 21
49.0702441533
 31
0.0
  0
LINE
  5
4F7
330
34B
100
AcDbEntity
  8
6802440
  6
Continuous
 62
     7
100
AcDbLine
 10
145.3139130075
 20
49.0702441533
 30
0.0
 11
145.3139130075
 21
47.8202441533
 31
0.0
  0
LINE
  5
4F8
330
34B
100
AcDbEntity
  8
6802440
  6
Continuous
 62
     7
100
AcDbLine
 10
147.8889130075
 20
55.8202441533
 30
0.0
 11
149.1389130075
 21
55.8202441533
 31
0.0
  0
LINE
  5
4F9
330
34B
100
AcDbEntity
  8
6802440
  6
Continuous
 62
     7
100
AcDbLine
 10
149.1389130075
 20
55.8202441533
 30
0.0
 11
149.1389130075
 21
57.0702441533
 31
0.0
  0
LINE
  5
4FA
330
34B
100
AcDbEntity
  8
6802440
  6
Continuous
 62
     7
100
AcDbLine
 10
149.1389130075
 20
57.0702441533
 30
0.0
 11
147.8889130075
 21
57.0702441533
 31
0.0
  0
LINE
  5
4FB
330
34B
100
AcDbEntity
  8
6802440
  6
Continuous
 62
     7
100
AcDbLine
 10
147.8889130075
 20
57.0702441533
 30
0.0
 11
147.8889130075
 21
55.8202441533
 31
0.0
  0
LINE
  5
4FC
330
34B
100
AcDbEntity
  8
6802440
  6
Continuous
 62
     7
100
AcDbLine
 10
147.8889130075
 20
53.8202441533
 30
0.0
 11
149.1389130075
 21
53.8202441533
 31
0.0
  0
LINE
  5
4FD
330
34B
100
AcDbEntity
  8
6802440
  6
Continuous
 62
     7
100
AcDbLine
 10
149.1389130075
 20
53.8202441533
 30
0.0
 11
149.1389130075
 21
55.0702441533
 31
0.0
  0
LINE
  5
4FE
330
34B
100
AcDbEntity
  8
6802440
  6
Continuous
 62
     7
100
AcDbLine
 10
149.1389130075
 20
55.0702441533
 30
0.0
 11
147.8889130075
 21
55.0702441533
 31
0.0
  0
LINE
  5
4FF
330
34B
100
AcDbEntity
  8
6802440
  6
Continuous
 62
     7
100
AcDbLine
 10
147.8889130075
 20
55.0702441533
 30
0.0
 11
147.8889130075
 21
53.8202441533
 31
0.0
  0
LINE
  5
500
330
34B
100
AcDbEntity
  8
6802440
  6
Continuous
 62
     7
100
AcDbLine
 10
147.8889130075
 20
51.8202441533
 30
0.0
 11
149.1389130075
 21
51.8202441533
 31
0.0
  0
LINE
  5
501
330
34B
100
AcDbEntity
  8
6802440
  6
Continuous
 62
     7
100
AcDbLine
 10
149.1389130075
 20
51.8202441533
 30
0.0
 11
149.1389130075
 21
53.0702441533
 31
0.0
  0
LINE
  5
502
330
34B
100
AcDbEntity
  8
6802440
  6
Continuous
 62
     7
100
AcDbLine
 10
149.1389130075
 20
53.0702441533
 30
0.0
 11
147.8889130075
 21
53.0702441533
 31
0.0
  0
LINE
  5
503
330
34B
100
AcDbEntity
  8
6802440
  6
Continuous
 62
     7
100
AcDbLine
 10
147.8889130075
 20
53.0702441533
 30
0.0
 11
147.8889130075
 21
51.8202441533
 31
0.0
  0
LINE
  5
504
330
34B
100
AcDbEntity
  8
6802440
  6
Continuous
 62
     7
100
AcDbLine
 10
147.8889130075
 20
49.8202441533
 30
0.0
 11
149.1389130075
 21
49.8202441533
 31
0.0
  0
LINE
  5
505
330
34B
100
AcDbEntity
  8
6802440
  6
Continuous
 62
     7
100
AcDbLine
 10
149.1389130075
 20
49.8202441533
 30
0.0
 11
149.1389130075
 21
51.0702441533
 31
0.0
  0
LINE
  5
506
330
34B
100
AcDbEntity
  8
6802440
  6
Continuous
 62
     7
100
AcDbLine
 10
149.1389130075
 20
51.0702441533
 30
0.0
 11
147.8889130075
 21
51.0702441533
 31
0.0
  0
LINE
  5
507
330
34B
100
AcDbEntity
  8
6802440
  6
Continuous
 62
     7
100
AcDbLine
 10
147.8889130075
 20
51.0702441533
 30
0.0
 11
147.8889130075
 21
49.8202441533
 31
0.0
  0
LINE
  5
508
330
34B
100
AcDbEntity
  8
6802440
  6
Continuous
 62
     7
100
AcDbLine
 10
147.8889130075
 20
47.8202441533
 30
0.0
 11
149.1389130075
 21
47.8202441533
 31
0.0
  0
LINE
  5
509
330
34B
100
AcDbEntity
  8
6802440
  6
Continuous
 62
     7
100
AcDbLine
 10
149.1389130075
 20
47.8202441533
 30
0.0
 11
149.1389130075
 21
49.0702441533
 31
0.0
  0
LINE
  5
50A
330
34B
100
AcDbEntity
  8
6802440
  6
Continuous
 62
     7
100
AcDbLine
 10
149.1389130075
 20
49.0702441533
 30
0.0
 11
147.8889130075
 21
49.0702441533
 31
0.0
  0
LINE
  5
50B
330
34B
100
AcDbEntity
  8
6802440
  6
Continuous
 62
     7
100
AcDbLine
 10
147.8889130075
 20
49.0702441533
 30
0.0
 11
147.8889130075
 21
47.8202441533
 31
0.0
  0
LINE
  5
50C
330
34B
100
AcDbEntity
  8
6802440
  6
Continuous
 62
     7
100
AcDbLine
 10
150.4639130075
 20
55.8202441533
 30
0.0
 11
151.7139130075
 21
55.8202441533
 31
0.0
  0
LINE
  5
50D
330
34B
100
AcDbEntity
  8
6802440
  6
Continuous
 62
     7
100
AcDbLine
 10
151.7139130075
 20
55.8202441533
 30
0.0
 11
151.7139130075
 21
57.0702441533
 31
0.0
  0
LINE
  5
50E
330
34B
100
AcDbEntity
  8
6802440
  6
Continuous
 62
     7
100
AcDbLine
 10
151.7139130075
 20
57.0702441533
 30
0.0
 11
150.4639130075
 21
57.0702441533
 31
0.0
  0
LINE
  5
50F
330
34B
100
AcDbEntity
  8
6802440
  6
Continuous
 62
     7
100
AcDbLine
 10
150.4639130075
 20
57.0702441533
 30
0.0
 11
150.4639130075
 21
55.8202441533
 31
0.0
  0
LINE
  5
510
330
34B
100
AcDbEntity
  8
6802440
  6
Continuous
 62
     7
100
AcDbLine
 10
150.4639130075
 20
53.8202441533
 30
0.0
 11
151.7139130075
 21
53.8202441533
 31
0.0
  0
LINE
  5
511
330
34B
100
AcDbEntity
  8
6802440
  6
Continuous
 62
     7
100
AcDbLine
 10
151.7139130075
 20
53.8202441533
 30
0.0
 11
151.7139130075
 21
55.0702441533
 31
0.0
  0
LINE
  5
512
330
34B
100
AcDbEntity
  8
6802440
  6
Continuous
 62
     7
100
AcDbLine
 10
151.7139130075
 20
55.0702441533
 30
0.0
 11
150.4639130075
 21
55.0702441533
 31
0.0
  0
LINE
  5
513
330
34B
100
AcDbEntity
  8
6802440
  6
Continuous
 62
     7
100
AcDbLine
 10
150.4639130075
 20
55.0702441533
 30
0.0
 11
150.4639130075
 21
53.8202441533
 31
0.0
  0
LINE
  5
514
330
34B
100
AcDbEntity
  8
6802440
  6
Continuous
 62
     7
100
AcDbLine
 10
150.4639130075
 20
51.8202441533
 30
0.0
 11
151.7139130075
 21
51.8202441533
 31
0.0
  0
LINE
  5
515
330
34B
100
AcDbEntity
  8
6802440
  6
Continuous
 62
     7
100
AcDbLine
 10
151.7139130075
 20
51.8202441533
 30
0.0
 11
151.7139130075
 21
53.0702441533
 31
0.0
  0
LINE
  5
516
330
34B
100
AcDbEntity
  8
6802440
  6
Continuous
 62
     7
100
AcDbLine
 10
151.7139130075
 20
53.0702441533
 30
0.0
 11
150.4639130075
 21
53.0702441533
 31
0.0
  0
LINE
  5
517
330
34B
100
AcDbEntity
  8
6802440
  6
Continuous
 62
     7
100
AcDbLine
 10
150.4639130075
 20
53.0702441533
 30
0.0
 11
150.4639130075
 21
51.8202441533
 31
0.0
  0
LINE
  5
518
330
34B
100
AcDbEntity
  8
6802440
  6
Continuous
 62
     7
100
AcDbLine
 10
150.4639130075
 20
49.8202441533
 30
0.0
 11
151.7139130075
 21
49.8202441533
 31
0.0
  0
LINE
  5
519
330
34B
100
AcDbEntity
  8
6802440
  6
Continuous
 62
     7
100
AcDbLine
 10
151.7139130075
 20
49.8202441533
 30
0.0
 11
151.7139130075
 21
51.0702441533
 31
0.0
  0
LINE
  5
51A
330
34B
100
AcDbEntity
  8
6802440
  6
Continuous
 62
     7
100
AcDbLine
 10
151.7139130075
 20
51.0702441533
 30
0.0
 11
150.4639130075
 21
51.0702441533
 31
0.0
  0
LINE
  5
51B
330
34B
100
AcDbEntity
  8
6802440
  6
Continuous
 62
     7
100
AcDbLine
 10
150.4639130075
 20
51.0702441533
 30
0.0
 11
150.4639130075
 21
49.8202441533
 31
0.0
  0
LINE
  5
51C
330
34B
100
AcDbEntity
  8
6802440
  6
Continuous
 62
     7
100
AcDbLine
 10
150.4639130075
 20
47.8202441533
 30
0.0
 11
151.7139130075
 21
47.8202441533
 31
0.0
  0
LINE
  5
51D
330
34B
100
AcDbEntity
  8
6802440
  6
Continuous
 62
     7
100
AcDbLine
 10
151.7139130075
 20
47.8202441533
 30
0.0
 11
151.7139130075
 21
49.0702441533
 31
0.0
  0
LINE
  5
51E
330
34B
100
AcDbEntity
  8
6802440
  6
Continuous
 62
     7
100
AcDbLine
 10
151.7139130075
 20
49.0702441533
 30
0.0
 11
150.4639130075
 21
49.0702441533
 31
0.0
  0
LINE
  5
51F
330
34B
100
AcDbEntity
  8
6802440
  6
Continuous
 62
     7
100
AcDbLine
 10
150.4639130075
 20
49.0702441533
 30
0.0
 11
150.4639130075
 21
47.8202441533
 31
0.0
  0
LINE
  5
520
330
34B
100
AcDbEntity
  8
6802440
  6
Continuous
 62
     7
100
AcDbLine
 10
153.0389130075
 20
55.8202441533
 30
0.0
 11
154.2889130075
 21
55.8202441533
 31
0.0
  0
LINE
  5
521
330
34B
100
AcDbEntity
  8
6802440
  6
Continuous
 62
     7
100
AcDbLine
 10
154.2889130075
 20
55.8202441533
 30
0.0
 11
154.2889130075
 21
57.0702441533
 31
0.0
  0
LINE
  5
522
330
34B
100
AcDbEntity
  8
6802440
  6
Continuous
 62
     7
100
AcDbLine
 10
154.2889130075
 20
57.0702441533
 30
0.0
 11
153.0389130075
 21
57.0702441533
 31
0.0
  0
LINE
  5
523
330
34B
100
AcDbEntity
  8
6802440
  6
Continuous
 62
     7
100
AcDbLine
 10
153.0389130075
 20
57.0702441533
 30
0.0
 11
153.0389130075
 21
55.8202441533
 31
0.0
  0
LINE
  5
524
330
34B
100
AcDbEntity
  8
6802440
  6
Continuous
 62
     7
100
AcDbLine
 10
153.0389130075
 20
53.8202441533
 30
0.0
 11
154.2889130075
 21
53.8202441533
 31
0.0
  0
LINE
  5
525
330
34B
100
AcDbEntity
  8
6802440
  6
Continuous
 62
     7
100
AcDbLine
 10
154.2889130075
 20
53.8202441533
 30
0.0
 11
154.2889130075
 21
55.0702441533
 31
0.0
  0
LINE
  5
526
330
34B
100
AcDbEntity
  8
6802440
  6
Continuous
 62
     7
100
AcDbLine
 10
154.2889130075
 20
55.0702441533
 30
0.0
 11
153.0389130075
 21
55.0702441533
 31
0.0
  0
LINE
  5
527
330
34B
100
AcDbEntity
  8
6802440
  6
Continuous
 62
     7
100
AcDbLine
 10
153.0389130075
 20
55.0702441533
 30
0.0
 11
153.0389130075
 21
53.8202441533
 31
0.0
  0
LINE
  5
528
330
34B
100
AcDbEntity
  8
6802440
  6
Continuous
 62
     7
100
AcDbLine
 10
153.0389130075
 20
51.8202441533
 30
0.0
 11
154.2889130075
 21
51.8202441533
 31
0.0
  0
LINE
  5
529
330
34B
100
AcDbEntity
  8
6802440
  6
Continuous
 62
     7
100
AcDbLine
 10
154.2889130075
 20
51.8202441533
 30
0.0
 11
154.2889130075
 21
53.0702441533
 31
0.0
  0
LINE
  5
52A
330
34B
100
AcDbEntity
  8
6802440
  6
Continuous
 62
     7
100
AcDbLine
 10
154.2889130075
 20
53.0702441533
 30
0.0
 11
153.0389130075
 21
53.0702441533
 31
0.0
  0
LINE
  5
52B
330
34B
100
AcDbEntity
  8
6802440
  6
Continuous
 62
     7
100
AcDbLine
 10
153.0389130075
 20
53.0702441533
 30
0.0
 11
153.0389130075
 21
51.8202441533
 31
0.0
  0
LINE
  5
52C
330
34B
100
AcDbEntity
  8
6802440
  6
Continuous
 62
     7
100
AcDbLine
 10
153.0389130075
 20
49.8202441533
 30
0.0
 11
154.2889130075
 21
49.8202441533
 31
0.0
  0
LINE
  5
52D
330
34B
100
AcDbEntity
  8
6802440
  6
Continuous
 62
     7
100
AcDbLine
 10
154.2889130075
 20
49.8202441533
 30
0.0
 11
154.2889130075
 21
51.0702441533
 31
0.0
  0
LINE
  5
52E
330
34B
100
AcDbEntity
  8
6802440
  6
Continuous
 62
     7
100
AcDbLine
 10
154.2889130075
 20
51.0702441533
 30
0.0
 11
153.0389130075
 21
51.0702441533
 31
0.0
  0
LINE
  5
52F
330
34B
100
AcDbEntity
  8
6802440
  6
Continuous
 62
     7
100
AcDbLine
 10
153.0389130075
 20
51.0702441533
 30
0.0
 11
153.0389130075
 21
49.8202441533
 31
0.0
  0
LINE
  5
530
330
34B
100
AcDbEntity
  8
6802440
  6
Continuous
 62
     7
100
AcDbLine
 10
153.0389130075
 20
47.8202441533
 30
0.0
 11
154.2889130075
 21
47.8202441533
 31
0.0
  0
LINE
  5
531
330
34B
100
AcDbEntity
  8
6802440
  6
Continuous
 62
     7
100
AcDbLine
 10
154.2889130075
 20
47.8202441533
 30
0.0
 11
154.2889130075
 21
49.0702441533
 31
0.0
  0
LINE
  5
532
330
34B
100
AcDbEntity
  8
6802440
  6
Continuous
 62
     7
100
AcDbLine
 10
154.2889130075
 20
49.0702441533
 30
0.0
 11
153.0389130075
 21
49.0702441533
 31
0.0
  0
LINE
  5
533
330
34B
100
AcDbEntity
  8
6802440
  6
Continuous
 62
     7
100
AcDbLine
 10
153.0389130075
 20
49.0702441533
 30
0.0
 11
153.0389130075
 21
47.8202441533
 31
0.0
  0
LINE
  5
534
330
34B
100
AcDbEntity
  8
6802440
  6
Continuous
 62
     7
100
AcDbLine
 10
155.6139130075
 20
55.8202441533
 30
0.0
 11
156.8639130075
 21
55.8202441533
 31
0.0
  0
LINE
  5
535
330
34B
100
AcDbEntity
  8
6802440
  6
Continuous
 62
     7
100
AcDbLine
 10
156.8639130075
 20
55.8202441533
 30
0.0
 11
156.8639130075
 21
57.0702441533
 31
0.0
  0
LINE
  5
536
330
34B
100
AcDbEntity
  8
6802440
  6
Continuous
 62
     7
100
AcDbLine
 10
156.8639130075
 20
57.0702441533
 30
0.0
 11
155.6139130075
 21
57.0702441533
 31
0.0
  0
LINE
  5
537
330
34B
100
AcDbEntity
  8
6802440
  6
Continuous
 62
     7
100
AcDbLine
 10
155.6139130075
 20
57.0702441533
 30
0.0
 11
155.6139130075
 21
55.8202441533
 31
0.0
  0
LINE
  5
538
330
34B
100
AcDbEntity
  8
6802440
  6
Continuous
 62
     7
100
AcDbLine
 10
155.6139130075
 20
53.8202441533
 30
0.0
 11
156.8639130075
 21
53.8202441533
 31
0.0
  0
LINE
  5
539
330
34B
100
AcDbEntity
  8
6802440
  6
Continuous
 62
     7
100
AcDbLine
 10
156.8639130075
 20
53.8202441533
 30
0.0
 11
156.8639130075
 21
55.0702441533
 31
0.0
  0
LINE
  5
53A
330
34B
100
AcDbEntity
  8
6802440
  6
Continuous
 62
     7
100
AcDbLine
 10
156.8639130075
 20
55.0702441533
 30
0.0
 11
155.6139130075
 21
55.0702441533
 31
0.0
  0
LINE
  5
53B
330
34B
100
AcDbEntity
  8
6802440
  6
Continuous
 62
     7
100
AcDbLine
 10
155.6139130075
 20
55.0702441533
 30
0.0
 11
155.6139130075
 21
53.8202441533
 31
0.0
  0
LINE
  5
53C
330
34B
100
AcDbEntity
  8
6802440
  6
Continuous
 62
     7
100
AcDbLine
 10
155.6139130075
 20
51.8202441533
 30
0.0
 11
156.8639130075
 21
51.8202441533
 31
0.0
  0
LINE
  5
53D
330
34B
100
AcDbEntity
  8
6802440
  6
Continuous
 62
     7
100
AcDbLine
 10
156.8639130075
 20
51.8202441533
 30
0.0
 11
156.8639130075
 21
53.0702441533
 31
0.0
  0
LINE
  5
53E
330
34B
100
AcDbEntity
  8
6802440
  6
Continuous
 62
     7
100
AcDbLine
 10
156.8639130075
 20
53.0702441533
 30
0.0
 11
155.6139130075
 21
53.0702441533
 31
0.0
  0
LINE
  5
53F
330
34B
100
AcDbEntity
  8
6802440
  6
Continuous
 62
     7
100
AcDbLine
 10
155.6139130075
 20
53.0702441533
 30
0.0
 11
155.6139130075
 21
51.8202441533
 31
0.0
  0
LINE
  5
540
330
34B
100
AcDbEntity
  8
6802440
  6
Continuous
 62
     7
100
AcDbLine
 10
155.6139130075
 20
49.8202441533
 30
0.0
 11
156.8639130075
 21
49.8202441533
 31
0.0
  0
LINE
  5
541
330
34B
100
AcDbEntity
  8
6802440
  6
Continuous
 62
     7
100
AcDbLine
 10
156.8639130075
 20
49.8202441533
 30
0.0
 11
156.8639130075
 21
51.0702441533
 31
0.0
  0
LINE
  5
542
330
34B
100
AcDbEntity
  8
6802440
  6
Continuous
 62
     7
100
AcDbLine
 10
156.8639130075
 20
51.0702441533
 30
0.0
 11
155.6139130075
 21
51.0702441533
 31
0.0
  0
LINE
  5
543
330
34B
100
AcDbEntity
  8
6802440
  6
Continuous
 62
     7
100
AcDbLine
 10
155.6139130075
 20
51.0702441533
 30
0.0
 11
155.6139130075
 21
49.8202441533
 31
0.0
  0
LINE
  5
544
330
34B
100
AcDbEntity
  8
6802440
  6
Continuous
 62
     7
100
AcDbLine
 10
155.6139130075
 20
47.8202441533
 30
0.0
 11
156.8639130075
 21
47.8202441533
 31
0.0
  0
LINE
  5
545
330
34B
100
AcDbEntity
  8
6802440
  6
Continuous
 62
     7
100
AcDbLine
 10
156.8639130075
 20
47.8202441533
 30
0.0
 11
156.8639130075
 21
49.0702441533
 31
0.0
  0
LINE
  5
546
330
34B
100
AcDbEntity
  8
6802440
  6
Continuous
 62
     7
100
AcDbLine
 10
156.8639130075
 20
49.0702441533
 30
0.0
 11
155.6139130075
 21
49.0702441533
 31
0.0
  0
LINE
  5
547
330
34B
100
AcDbEntity
  8
6802440
  6
Continuous
 62
     7
100
AcDbLine
 10
155.6139130075
 20
49.0702441533
 30
0.0
 11
155.6139130075
 21
47.8202441533
 31
0.0
  0
LINE
  5
548
330
34B
100
AcDbEntity
  8
6802440
  6
Continuous
 62
     7
100
AcDbLine
 10
158.1889130075
 20
55.8202441533
 30
0.0
 11
159.4389130075
 21
55.8202441533
 31
0.0
  0
LINE
  5
549
330
34B
100
AcDbEntity
  8
6802440
  6
Continuous
 62
     7
100
AcDbLine
 10
159.4389130075
 20
55.8202441533
 30
0.0
 11
159.4389130075
 21
57.0702441533
 31
0.0
  0
LINE
  5
54A
330
34B
100
AcDbEntity
  8
6802440
  6
Continuous
 62
     7
100
AcDbLine
 10
159.4389130075
 20
57.0702441533
 30
0.0
 11
158.1889130075
 21
57.0702441533
 31
0.0
  0
LINE
  5
54B
330
34B
100
AcDbEntity
  8
6802440
  6
Continuous
 62
     7
100
AcDbLine
 10
158.1889130075
 20
57.0702441533
 30
0.0
 11
158.1889130075
 21
55.8202441533
 31
0.0
  0
LINE
  5
54C
330
34B
100
AcDbEntity
  8
6802440
  6
Continuous
 62
     7
100
AcDbLine
 10
158.1889130075
 20
53.8202441533
 30
0.0
 11
159.4389130075
 21
53.8202441533
 31
0.0
  0
LINE
  5
54D
330
34B
100
AcDbEntity
  8
6802440
  6
Continuous
 62
     7
100
AcDbLine
 10
159.4389130075
 20
53.8202441533
 30
0.0
 11
159.4389130075
 21
55.0702441533
 31
0.0
  0
LINE
  5
54E
330
34B
100
AcDbEntity
  8
6802440
  6
Continuous
 62
     7
100
AcDbLine
 10
159.4389130075
 20
55.0702441533
 30
0.0
 11
158.1889130075
 21
55.0702441533
 31
0.0
  0
LINE
  5
54F
330
34B
100
AcDbEntity
  8
6802440
  6
Continuous
 62
     7
100
AcDbLine
 10
158.1889130075
 20
55.0702441533
 30
0.0
 11
158.1889130075
 21
53.8202441533
 31
0.0
  0
LINE
  5
550
330
34B
100
AcDbEntity
  8
6802440
  6
Continuous
 62
     7
100
AcDbLine
 10
158.1889130075
 20
51.8202441533
 30
0.0
 11
159.4389130075
 21
51.8202441533
 31
0.0
  0
LINE
  5
551
330
34B
100
AcDbEntity
  8
6802440
  6
Continuous
 62
     7
100
AcDbLine
 10
159.4389130075
 20
51.8202441533
 30
0.0
 11
159.4389130075
 21
53.0702441533
 31
0.0
  0
LINE
  5
552
330
34B
100
AcDbEntity
  8
6802440
  6
Continuous
 62
     7
100
AcDbLine
 10
159.4389130075
 20
53.0702441533
 30
0.0
 11
158.1889130075
 21
53.0702441533
 31
0.0
  0
LINE
  5
553
330
34B
100
AcDbEntity
  8
6802440
  6
Continuous
 62
     7
100
AcDbLine
 10
158.1889130075
 20
53.0702441533
 30
0.0
 11
158.1889130075
 21
51.8202441533
 31
0.0
  0
LINE
  5
554
330
34B
100
AcDbEntity
  8
6802440
  6
Continuous
 62
     7
100
AcDbLine
 10
158.1889130075
 20
49.8202441533
 30
0.0
 11
159.4389130075
 21
49.8202441533
 31
0.0
  0
LINE
  5
555
330
34B
100
AcDbEntity
  8
6802440
  6
Continuous
 62
     7
100
AcDbLine
 10
159.4389130075
 20
49.8202441533
 30
0.0
 11
159.4389130075
 21
51.0702441533
 31
0.0
  0
LINE
  5
556
330
34B
100
AcDbEntity
  8
6802440
  6
Continuous
 62
     7
100
AcDbLine
 10
159.4389130075
 20
51.0702441533
 30
0.0
 11
158.1889130075
 21
51.0702441533
 31
0.0
  0
LINE
  5
557
330
34B
100
AcDbEntity
  8
6802440
  6
Continuous
 62
     7
100
AcDbLine
 10
158.1889130075
 20
51.0702441533
 30
0.0
 11
158.1889130075
 21
49.8202441533
 31
0.0
  0
LINE
  5
558
330
34B
100
AcDbEntity
  8
6802440
  6
Continuous
 62
     7
100
AcDbLine
 10
158.1889130075
 20
47.8202441533
 30
0.0
 11
159.4389130075
 21
47.8202441533
 31
0.0
  0
LINE
  5
559
330
34B
100
AcDbEntity
  8
6802440
  6
Continuous
 62
     7
100
AcDbLine
 10
159.4389130075
 20
47.8202441533
 30
0.0
 11
159.4389130075
 21
49.0702441533
 31
0.0
  0
LINE
  5
55A
330
34B
100
AcDbEntity
  8
6802440
  6
Continuous
 62
     7
100
AcDbLine
 10
159.4389130075
 20
49.0702441533
 30
0.0
 11
158.1889130075
 21
49.0702441533
 31
0.0
  0
LINE
  5
55B
330
34B
100
AcDbEntity
  8
6802440
  6
Continuous
 62
     7
100
AcDbLine
 10
158.1889130075
 20
49.0702441533
 30
0.0
 11
158.1889130075
 21
47.8202441533
 31
0.0
  0
LINE
  5
55C
330
34B
100
AcDbEntity
  8
6802440
  6
Continuous
 62
     7
100
AcDbLine
 10
160.7639130075
 20
55.8202441533
 30
0.0
 11
162.0139130075
 21
55.8202441533
 31
0.0
  0
LINE
  5
55D
330
34B
100
AcDbEntity
  8
6802440
  6
Continuous
 62
     7
100
AcDbLine
 10
162.0139130075
 20
55.8202441533
 30
0.0
 11
162.0139130075
 21
57.0702441533
 31
0.0
  0
LINE
  5
55E
330
34B
100
AcDbEntity
  8
6802440
  6
Continuous
 62
     7
100
AcDbLine
 10
162.0139130075
 20
57.0702441533
 30
0.0
 11
160.7639130075
 21
57.0702441533
 31
0.0
  0
LINE
  5
55F
330
34B
100
AcDbEntity
  8
6802440
  6
Continuous
 62
     7
100
AcDbLine
 10
160.7639130075
 20
57.0702441533
 30
0.0
 11
160.7639130075
 21
55.8202441533
 31
0.0
  0
LINE
  5
560
330
34B
100
AcDbEntity
  8
6802440
  6
Continuous
 62
     7
100
AcDbLine
 10
160.7639130075
 20
53.8202441533
 30
0.0
 11
162.0139130075
 21
53.8202441533
 31
0.0
  0
LINE
  5
561
330
34B
100
AcDbEntity
  8
6802440
  6
Continuous
 62
     7
100
AcDbLine
 10
162.0139130075
 20
53.8202441533
 30
0.0
 11
162.0139130075
 21
55.0702441533
 31
0.0
  0
LINE
  5
562
330
34B
100
AcDbEntity
  8
6802440
  6
Continuous
 62
     7
100
AcDbLine
 10
162.0139130075
 20
55.0702441533
 30
0.0
 11
160.7639130075
 21
55.0702441533
 31
0.0
  0
LINE
  5
563
330
34B
100
AcDbEntity
  8
6802440
  6
Continuous
 62
     7
100
AcDbLine
 10
160.7639130075
 20
55.0702441533
 30
0.0
 11
160.7639130075
 21
53.8202441533
 31
0.0
  0
LINE
  5
564
330
34B
100
AcDbEntity
  8
6802440
  6
Continuous
 62
     7
100
AcDbLine
 10
160.7639130075
 20
51.8202441533
 30
0.0
 11
162.0139130075
 21
51.8202441533
 31
0.0
  0
LINE
  5
565
330
34B
100
AcDbEntity
  8
6802440
  6
Continuous
 62
     7
100
AcDbLine
 10
162.0139130075
 20
51.8202441533
 30
0.0
 11
162.0139130075
 21
53.0702441533
 31
0.0
  0
LINE
  5
566
330
34B
100
AcDbEntity
  8
6802440
  6
Continuous
 62
     7
100
AcDbLine
 10
162.0139130075
 20
53.0702441533
 30
0.0
 11
160.7639130075
 21
53.0702441533
 31
0.0
  0
LINE
  5
567
330
34B
100
AcDbEntity
  8
6802440
  6
Continuous
 62
     7
100
AcDbLine
 10
160.7639130075
 20
53.0702441533
 30
0.0
 11
160.7639130075
 21
51.8202441533
 31
0.0
  0
LINE
  5
568
330
34B
100
AcDbEntity
  8
6802440
  6
Continuous
 62
     7
100
AcDbLine
 10
160.7639130075
 20
49.8202441533
 30
0.0
 11
162.0139130075
 21
49.8202441533
 31
0.0
  0
LINE
  5
569
330
34B
100
AcDbEntity
  8
6802440
  6
Continuous
 62
     7
100
AcDbLine
 10
162.0139130075
 20
49.8202441533
 30
0.0
 11
162.0139130075
 21
51.0702441533
 31
0.0
  0
LINE
  5
56A
330
34B
100
AcDbEntity
  8
6802440
  6
Continuous
 62
     7
100
AcDbLine
 10
162.0139130075
 20
51.0702441533
 30
0.0
 11
160.7639130075
 21
51.0702441533
 31
0.0
  0
LINE
  5
56B
330
34B
100
AcDbEntity
  8
6802440
  6
Continuous
 62
     7
100
AcDbLine
 10
160.7639130075
 20
51.0702441533
 30
0.0
 11
160.7639130075
 21
49.8202441533
 31
0.0
  0
LINE
  5
56C
330
34B
100
AcDbEntity
  8
6802440
  6
Continuous
 62
     7
100
AcDbLine
 10
160.7639130075
 20
47.8202441533
 30
0.0
 11
162.0139130075
 21
47.8202441533
 31
0.0
  0
LINE
  5
56D
330
34B
100
AcDbEntity
  8
6802440
  6
Continuous
 62
     7
100
AcDbLine
 10
162.0139130075
 20
47.8202441533
 30
0.0
 11
162.0139130075
 21
49.0702441533
 31
0.0
  0
LINE
  5
56E
330
34B
100
AcDbEntity
  8
6802440
  6
Continuous
 62
     7
100
AcDbLine
 10
162.0139130075
 20
49.0702441533
 30
0.0
 11
160.7639130075
 21
49.0702441533
 31
0.0
  0
LINE
  5
56F
330
34B
100
AcDbEntity
  8
6802440
  6
Continuous
 62
     7
100
AcDbLine
 10
160.7639130075
 20
49.0702441533
 30
0.0
 11
160.7639130075
 21
47.8202441533
 31
0.0
  0
LINE
  5
570
330
34B
100
AcDbEntity
  8
6802440
  6
Continuous
 62
     7
100
AcDbLine
 10
163.3389130075
 20
55.8202441533
 30
0.0
 11
164.5889130075
 21
55.8202441533
 31
0.0
  0
LINE
  5
571
330
34B
100
AcDbEntity
  8
6802440
  6
Continuous
 62
     7
100
AcDbLine
 10
164.5889130075
 20
55.8202441533
 30
0.0
 11
164.5889130075
 21
57.0702441533
 31
0.0
  0
LINE
  5
572
330
34B
100
AcDbEntity
  8
6802440
  6
Continuous
 62
     7
100
AcDbLine
 10
164.5889130075
 20
57.0702441533
 30
0.0
 11
163.3389130075
 21
57.0702441533
 31
0.0
  0
LINE
  5
573
330
34B
100
AcDbEntity
  8
6802440
  6
Continuous
 62
     7
100
AcDbLine
 10
163.3389130075
 20
57.0702441533
 30
0.0
 11
163.3389130075
 21
55.8202441533
 31
0.0
  0
LINE
  5
574
330
34B
100
AcDbEntity
  8
6802440
  6
Continuous
 62
     7
100
AcDbLine
 10
163.3389130075
 20
53.8202441533
 30
0.0
 11
164.5889130075
 21
53.8202441533
 31
0.0
  0
LINE
  5
575
330
34B
100
AcDbEntity
  8
6802440
  6
Continuous
 62
     7
100
AcDbLine
 10
164.5889130075
 20
53.8202441533
 30
0.0
 11
164.5889130075
 21
55.0702441533
 31
0.0
  0
LINE
  5
576
330
34B
100
AcDbEntity
  8
6802440
  6
Continuous
 62
     7
100
AcDbLine
 10
164.5889130075
 20
55.0702441533
 30
0.0
 11
163.3389130075
 21
55.0702441533
 31
0.0
  0
LINE
  5
577
330
34B
100
AcDbEntity
  8
6802440
  6
Continuous
 62
     7
100
AcDbLine
 10
163.3389130075
 20
55.0702441533
 30
0.0
 11
163.3389130075
 21
53.8202441533
 31
0.0
  0
LINE
  5
578
330
34B
100
AcDbEntity
  8
6802440
  6
Continuous
 62
     7
100
AcDbLine
 10
163.3389130075
 20
51.8202441533
 30
0.0
 11
164.5889130075
 21
51.8202441533
 31
0.0
  0
LINE
  5
579
330
34B
100
AcDbEntity
  8
6802440
  6
Continuous
 62
     7
100
AcDbLine
 10
164.5889130075
 20
51.8202441533
 30
0.0
 11
164.5889130075
 21
53.0702441533
 31
0.0
  0
LINE
  5
57A
330
34B
100
AcDbEntity
  8
6802440
  6
Continuous
 62
     7
100
AcDbLine
 10
164.5889130075
 20
53.0702441533
 30
0.0
 11
163.3389130075
 21
53.0702441533
 31
0.0
  0
LINE
  5
57B
330
34B
100
AcDbEntity
  8
6802440
  6
Continuous
 62
     7
100
AcDbLine
 10
163.3389130075
 20
53.0702441533
 30
0.0
 11
163.3389130075
 21
51.8202441533
 31
0.0
  0
LINE
  5
57C
330
34B
100
AcDbEntity
  8
6802440
  6
Continuous
 62
     7
100
AcDbLine
 10
163.3389130075
 20
49.8202441533
 30
0.0
 11
164.5889130075
 21
49.8202441533
 31
0.0
  0
LINE
  5
57D
330
34B
100
AcDbEntity
  8
6802440
  6
Continuous
 62
     7
100
AcDbLine
 10
164.5889130075
 20
49.8202441533
 30
0.0
 11
164.5889130075
 21
51.0702441533
 31
0.0
  0
LINE
  5
57E
330
34B
100
AcDbEntity
  8
6802440
  6
Continuous
 62
     7
100
AcDbLine
 10
164.5889130075
 20
51.0702441533
 30
0.0
 11
163.3389130075
 21
51.0702441533
 31
0.0
  0
LINE
  5
57F
330
34B
100
AcDbEntity
  8
6802440
  6
Continuous
 62
     7
100
AcDbLine
 10
163.3389130075
 20
51.0702441533
 30
0.0
 11
163.3389130075
 21
49.8202441533
 31
0.0
  0
LINE
  5
580
330
34B
100
AcDbEntity
  8
6802440
  6
Continuous
 62
     7
100
AcDbLine
 10
163.3389130075
 20
47.8202441533
 30
0.0
 11
164.5889130075
 21
47.8202441533
 31
0.0
  0
LINE
  5
581
330
34B
100
AcDbEntity
  8
6802440
  6
Continuous
 62
     7
100
AcDbLine
 10
164.5889130075
 20
47.8202441533
 30
0.0
 11
164.5889130075
 21
49.0702441533
 31
0.0
  0
LINE
  5
582
330
34B
100
AcDbEntity
  8
6802440
  6
Continuous
 62
     7
100
AcDbLine
 10
164.5889130075
 20
49.0702441533
 30
0.0
 11
163.3389130075
 21
49.0702441533
 31
0.0
  0
LINE
  5
583
330
34B
100
AcDbEntity
  8
6802440
  6
Continuous
 62
     7
100
AcDbLine
 10
163.3389130075
 20
49.0702441533
 30
0.0
 11
163.3389130075
 21
47.8202441533
 31
0.0
  0
LINE
  5
584
330
34B
100
AcDbEntity
  8
6802440
  6
Continuous
 62
     7
100
AcDbLine
 10
165.9139130075
 20
55.8202441533
 30
0.0
 11
167.1639130075
 21
55.8202441533
 31
0.0
  0
LINE
  5
585
330
34B
100
AcDbEntity
  8
6802440
  6
Continuous
 62
     7
100
AcDbLine
 10
167.1639130075
 20
55.8202441533
 30
0.0
 11
167.1639130075
 21
57.0702441533
 31
0.0
  0
LINE
  5
586
330
34B
100
AcDbEntity
  8
6802440
  6
Continuous
 62
     7
100
AcDbLine
 10
167.1639130075
 20
57.0702441533
 30
0.0
 11
165.9139130075
 21
57.0702441533
 31
0.0
  0
LINE
  5
587
330
34B
100
AcDbEntity
  8
6802440
  6
Continuous
 62
     7
100
AcDbLine
 10
165.9139130075
 20
57.0702441533
 30
0.0
 11
165.9139130075
 21
55.8202441533
 31
0.0
  0
LINE
  5
588
330
34B
100
AcDbEntity
  8
6802440
  6
Continuous
 62
     7
100
AcDbLine
 10
165.9139130075
 20
53.8202441533
 30
0.0
 11
167.1639130075
 21
53.8202441533
 31
0.0
  0
LINE
  5
589
330
34B
100
AcDbEntity
  8
6802440
  6
Continuous
 62
     7
100
AcDbLine
 10
167.1639130075
 20
53.8202441533
 30
0.0
 11
167.1639130075
 21
55.0702441533
 31
0.0
  0
LINE
  5
58A
330
34B
100
AcDbEntity
  8
6802440
  6
Continuous
 62
     7
100
AcDbLine
 10
167.1639130075
 20
55.0702441533
 30
0.0
 11
165.9139130075
 21
55.0702441533
 31
0.0
  0
LINE
  5
58B
330
34B
100
AcDbEntity
  8
6802440
  6
Continuous
 62
     7
100
AcDbLine
 10
165.9139130075
 20
55.0702441533
 30
0.0
 11
165.9139130075
 21
53.8202441533
 31
0.0
  0
LINE
  5
58C
330
34B
100
AcDbEntity
  8
6802440
  6
Continuous
 62
     7
100
AcDbLine
 10
165.9139130075
 20
51.8202441533
 30
0.0
 11
167.1639130075
 21
51.8202441533
 31
0.0
  0
LINE
  5
58D
330
34B
100
AcDbEntity
  8
6802440
  6
Continuous
 62
     7
100
AcDbLine
 10
167.1639130075
 20
51.8202441533
 30
0.0
 11
167.1639130075
 21
53.0702441533
 31
0.0
  0
LINE
  5
58E
330
34B
100
AcDbEntity
  8
6802440
  6
Continuous
 62
     7
100
AcDbLine
 10
167.1639130075
 20
53.0702441533
 30
0.0
 11
165.9139130075
 21
53.0702441533
 31
0.0
  0
LINE
  5
58F
330
34B
100
AcDbEntity
  8
6802440
  6
Continuous
 62
     7
100
AcDbLine
 10
165.9139130075
 20
53.0702441533
 30
0.0
 11
165.9139130075
 21
51.8202441533
 31
0.0
  0
LINE
  5
590
330
34B
100
AcDbEntity
  8
6802440
  6
Continuous
 62
     7
100
AcDbLine
 10
165.9139130075
 20
49.8202441533
 30
0.0
 11
167.1639130075
 21
49.8202441533
 31
0.0
  0
LINE
  5
591
330
34B
100
AcDbEntity
  8
6802440
  6
Continuous
 62
     7
100
AcDbLine
 10
167.1639130075
 20
49.8202441533
 30
0.0
 11
167.1639130075
 21
51.0702441533
 31
0.0
  0
LINE
  5
592
330
34B
100
AcDbEntity
  8
6802440
  6
Continuous
 62
     7
100
AcDbLine
 10
167.1639130075
 20
51.0702441533
 30
0.0
 11
165.9139130075
 21
51.0702441533
 31
0.0
  0
LINE
  5
593
330
34B
100
AcDbEntity
  8
6802440
  6
Continuous
 62
     7
100
AcDbLine
 10
165.9139130075
 20
51.0702441533
 30
0.0
 11
165.9139130075
 21
49.8202441533
 31
0.0
  0
LINE
  5
594
330
34B
100
AcDbEntity
  8
6802440
  6
Continuous
 62
     7
100
AcDbLine
 10
165.9139130075
 20
47.8202441533
 30
0.0
 11
167.1639130075
 21
47.8202441533
 31
0.0
  0
LINE
  5
595
330
34B
100
AcDbEntity
  8
6802440
  6
Continuous
 62
     7
100
AcDbLine
 10
167.1639130075
 20
47.8202441533
 30
0.0
 11
167.1639130075
 21
49.0702441533
 31
0.0
  0
LINE
  5
596
330
34B
100
AcDbEntity
  8
6802440
  6
Continuous
 62
     7
100
AcDbLine
 10
167.1639130075
 20
49.0702441533
 30
0.0
 11
165.9139130075
 21
49.0702441533
 31
0.0
  0
LINE
  5
597
330
34B
100
AcDbEntity
  8
6802440
  6
Continuous
 62
     7
100
AcDbLine
 10
165.9139130075
 20
49.0702441533
 30
0.0
 11
165.9139130075
 21
47.8202441533
 31
0.0
  0
LINE
  5
598
330
34B
100
AcDbEntity
  8
6802440
  6
Continuous
 62
     7
100
AcDbLine
 10
168.4889130075
 20
55.8202441533
 30
0.0
 11
169.7389130075
 21
55.8202441533
 31
0.0
  0
LINE
  5
599
330
34B
100
AcDbEntity
  8
6802440
  6
Continuous
 62
     7
100
AcDbLine
 10
169.7389130075
 20
55.8202441533
 30
0.0
 11
169.7389130075
 21
57.0702441533
 31
0.0
  0
LINE
  5
59A
330
34B
100
AcDbEntity
  8
6802440
  6
Continuous
 62
     7
100
AcDbLine
 10
169.7389130075
 20
57.0702441533
 30
0.0
 11
168.4889130075
 21
57.0702441533
 31
0.0
  0
LINE
  5
59B
330
34B
100
AcDbEntity
  8
6802440
  6
Continuous
 62
     7
100
AcDbLine
 10
168.4889130075
 20
57.0702441533
 30
0.0
 11
168.4889130075
 21
55.8202441533
 31
0.0
  0
LINE
  5
59C
330
34B
100
AcDbEntity
  8
6802440
  6
Continuous
 62
     7
100
AcDbLine
 10
168.4889130075
 20
53.8202441533
 30
0.0
 11
169.7389130075
 21
53.8202441533
 31
0.0
  0
LINE
  5
59D
330
34B
100
AcDbEntity
  8
6802440
  6
Continuous
 62
     7
100
AcDbLine
 10
169.7389130075
 20
53.8202441533
 30
0.0
 11
169.7389130075
 21
55.0702441533
 31
0.0
  0
LINE
  5
59E
330
34B
100
AcDbEntity
  8
6802440
  6
Continuous
 62
     7
100
AcDbLine
 10
169.7389130075
 20
55.0702441533
 30
0.0
 11
168.4889130075
 21
55.0702441533
 31
0.0
  0
LINE
  5
59F
330
34B
100
AcDbEntity
  8
6802440
  6
Continuous
 62
     7
100
AcDbLine
 10
168.4889130075
 20
55.0702441533
 30
0.0
 11
168.4889130075
 21
53.8202441533
 31
0.0
  0
LINE
  5
5A0
330
34B
100
AcDbEntity
  8
6802440
  6
Continuous
 62
     7
100
AcDbLine
 10
168.4889130075
 20
51.8202441533
 30
0.0
 11
169.7389130075
 21
51.8202441533
 31
0.0
  0
LINE
  5
5A1
330
34B
100
AcDbEntity
  8
6802440
  6
Continuous
 62
     7
100
AcDbLine
 10
169.7389130075
 20
51.8202441533
 30
0.0
 11
169.7389130075
 21
53.0702441533
 31
0.0
  0
LINE
  5
5A2
330
34B
100
AcDbEntity
  8
6802440
  6
Continuous
 62
     7
100
AcDbLine
 10
169.7389130075
 20
53.0702441533
 30
0.0
 11
168.4889130075
 21
53.0702441533
 31
0.0
  0
LINE
  5
5A3
330
34B
100
AcDbEntity
  8
6802440
  6
Continuous
 62
     7
100
AcDbLine
 10
168.4889130075
 20
53.0702441533
 30
0.0
 11
168.4889130075
 21
51.8202441533
 31
0.0
  0
LINE
  5
5A4
330
34B
100
AcDbEntity
  8
6802440
  6
Continuous
 62
     7
100
AcDbLine
 10
168.4889130075
 20
49.8202441533
 30
0.0
 11
169.7389130075
 21
49.8202441533
 31
0.0
  0
LINE
  5
5A5
330
34B
100
AcDbEntity
  8
6802440
  6
Continuous
 62
     7
100
AcDbLine
 10
169.7389130075
 20
49.8202441533
 30
0.0
 11
169.7389130075
 21
51.0702441533
 31
0.0
  0
LINE
  5
5A6
330
34B
100
AcDbEntity
  8
6802440
  6
Continuous
 62
     7
100
AcDbLine
 10
169.7389130075
 20
51.0702441533
 30
0.0
 11
168.4889130075
 21
51.0702441533
 31
0.0
  0
LINE
  5
5A7
330
34B
100
AcDbEntity
  8
6802440
  6
Continuous
 62
     7
100
AcDbLine
 10
168.4889130075
 20
51.0702441533
 30
0.0
 11
168.4889130075
 21
49.8202441533
 31
0.0
  0
LINE
  5
5A8
330
34B
100
AcDbEntity
  8
6802440
  6
Continuous
 62
     7
100
AcDbLine
 10
168.4889130075
 20
47.8202441533
 30
0.0
 11
169.7389130075
 21
47.8202441533
 31
0.0
  0
LINE
  5
5A9
330
34B
100
AcDbEntity
  8
6802440
  6
Continuous
 62
     7
100
AcDbLine
 10
169.7389130075
 20
47.8202441533
 30
0.0
 11
169.7389130075
 21
49.0702441533
 31
0.0
  0
LINE
  5
5AA
330
34B
100
AcDbEntity
  8
6802440
  6
Continuous
 62
     7
100
AcDbLine
 10
169.7389130075
 20
49.0702441533
 30
0.0
 11
168.4889130075
 21
49.0702441533
 31
0.0
  0
LINE
  5
5AB
330
34B
100
AcDbEntity
  8
6802440
  6
Continuous
 62
     7
100
AcDbLine
 10
168.4889130075
 20
49.0702441533
 30
0.0
 11
168.4889130075
 21
47.8202441533
 31
0.0
  0
LINE
  5
5AC
330
34B
100
AcDbEntity
  8
6802440
  6
Continuous
 62
     7
100
AcDbLine
 10
176.6764130075
 20
59.0813636053
 30
0.0
 11
175.6014130075
 21
59.0813636053
 31
0.0
  0
LINE
  5
5AD
330
34B
100
AcDbEntity
  8
6802440
  6
Continuous
 62
     7
100
AcDbLine
 10
175.6014130075
 20
59.0813636053
 30
0.0
 11
175.6014130075
 21
59.1042441533
 31
0.0
  0
LINE
  5
5AE
330
34B
100
AcDbEntity
  8
6802440
  6
Continuous
 62
     7
100
AcDbLine
 10
98.2514130075
 20
59.1042441533
 30
0.0
 11
98.2514130075
 21
59.0813636053
 31
0.0
  0
LINE
  5
5AF
330
34B
100
AcDbEntity
  8
6802440
  6
Continuous
 62
     7
100
AcDbLine
 10
98.2514130075
 20
59.0813636053
 30
0.0
 11
97.1764130075
 21
59.0813636053
 31
0.0
  0
LINE
  5
5B0
330
34B
100
AcDbEntity
  8
6802440
  6
Continuous
 62
     7
100
AcDbLine
 10
98.2514130075
 20
59.1042441533
 30
0.0
 11
98.2514130075
 21
59.1952441533
 31
0.0
  0
LINE
  5
5B1
330
34B
100
AcDbEntity
  8
6802440
  6
Continuous
 62
     7
100
AcDbLine
 10
175.6014130075
 20
59.1952441533
 30
0.0
 11
175.6014130075
 21
59.1042441533
 31
0.0
  0
LINE
  5
5B2
330
34B
100
AcDbEntity
  8
6802440
  6
Continuous
 62
     7
100
AcDbLine
 10
98.2514130075
 20
59.1952441533
 30
0.0
 11
175.6014130075
 21
59.1952441533
 31
0.0
  0
CIRCLE
  5
5B3
330
34B
100
AcDbEntity
  8
6802440
  6
Continuous
 62
     7
100
AcDbCircle
 10
97.7014130075
 20
52.3952441533
 30
0.0
 40
0.1625
  0
CIRCLE
  5
5B4
330
34B
100
AcDbEntity
  8
6802440
  6
Continuous
 62
     7
100
AcDbCircle
 10
97.7014130075
 20
46.8952441533
 30
0.0
 40
0.1625
  0
CIRCLE
  5
5B5
330
34B
100
AcDbEntity
  8
6802440
  6
Continuous
 62
     7
100
AcDbCircle
 10
97.7014130075
 20
57.8952441533
 30
0.0
 40
0.1625
  0
CIRCLE
  5
5B6
330
34B
100
AcDbEntity
  8
6802440
  6
Continuous
 62
     7
100
AcDbCircle
 10
176.1514130075
 20
57.8952441533
 30
0.0
 40
0.1625
  0
CIRCLE
  5
5B7
330
34B
100
AcDbEntity
  8
6802440
  6
Continuous
 62
     7
100
AcDbCircle
 10
176.1514130075
 20
46.8952441533
 30
0.0
 40
0.1625
  0
CIRCLE
  5
5B8
330
34B
100
AcDbEntity
  8
6802440
  6
Continuous
 62
     7
100
AcDbCircle
 10
176.1514130075
 20
52.3952441533
 30
0.0
 40
0.1625
  0
LINE
  5
5B9
330
34B
100
AcDbEntity
  8
6301665
  6
Continuous
 62
     7
100
AcDbLine
 10
177.9904130075
 20
45.8018441533
 30
0.0
 11
177.9904130075
 21
45.8017441533
 31
0.0
  0
LINE
  5
5BA
330
34B
100
AcDbEntity
  8
1.5M_PHV_T_LOOSE
  6
Continuous
 62
     7
100
AcDbLine
 10
98.2014130075
 20
44.9202441533
 30
0.0
 11
98.2014130075
 21
45.6952441533
 31
0.0
  0
LINE
  5
5BB
330
34B
100
AcDbEntity
  8
1.5M_PHV_T_LOOSE
  6
Continuous
 62
     7
100
AcDbLine
 10
175.3514130075
 20
44.9202441533
 30
0.0
 11
175.3514130075
 21
45.6952441533
 31
0.0
  0
LINE
  5
5BC
330
34B
100
AcDbEntity
  8
1.5M_PHV_T_LOOSE
  6
Continuous
 62
     7
100
AcDbLine
 10
96.9414130075
 20
44.6202441533
 30
0.0
 11
176.6114130075
 21
44.6202441533
 31
0.0
  0
LINE
  5
5BD
330
34B
100
AcDbEntity
  8
1.5M_PHV_T_LOOSE
  6
Continuous
 62
     7
100
AcDbLine
 10
176.6114130075
 20
44.6202441533
 30
0.0
 11
176.8764130075
 21
44.8852441533
 31
0.0
  0
LINE
  5
5BE
330
34B
100
AcDbEntity
  8
1.5M_PHV_T_LOOSE
  6
Continuous
 62
     7
100
AcDbLine
 10
96.6764130075
 20
44.8852441533
 30
0.0
 11
176.8764130075
 21
44.8852441533
 31
0.0
  0
LINE
  5
5BF
330
34B
100
AcDbEntity
  8
1.5M_PHV_T_LOOSE
  6
Continuous
 62
     7
100
AcDbLine
 10
176.8764130075
 20
44.8852441533
 30
0.0
 11
176.8764130075
 21
44.9202441533
 31
0.0
  0
LINE
  5
5C0
330
34B
100
AcDbEntity
  8
1.5M_PHV_T_LOOSE
  6
Continuous
 62
     7
100
AcDbLine
 10
96.9414130075
 20
44.6202441533
 30
0.0
 11
96.6764130075
 21
44.8852441533
 31
0.0
  0
LINE
  5
5C1
330
34B
100
AcDbEntity
  8
1.5M_PHV_T_LOOSE
  6
Continuous
 62
     7
100
AcDbLine
 10
96.6764130075
 20
44.8852441533
 30
0.0
 11
96.6764130075
 21
44.9202441533
 31
0.0
  0
LINE
  5
5C2
330
34B
100
AcDbEntity
  8
1.5M_PHV_T_LOOSE
  6
Continuous
 62
     7
100
AcDbLine
 10
96.6764130075
 20
44.9202441533
 30
0.0
 11
176.8764130075
 21
44.9202441533
 31
0.0
  0
ENDBLK
  5
5C4
330
34B
100
AcDbEntity
  8
0
100
AcDbBlockEnd
  0
BLOCK
  5
630
330
5C5
100
AcDbEntity
  8
0
100
AcDbBlockBegin
  2
SE4
 70
     0
 10
0.0
 20
0.0
 30
0.0
  3
SE4
  1

  0
ARC
  5
5C7
330
5C5
100
AcDbEntity
  8
6021540
  6
Continuous
 62
     7
100
AcDbCircle
 10
213.7053921657
 20
118.0173096062
 30
0.0
 40
0.0909999999999994
100
AcDbArc
 50
113.6468940834
 51
180.0
  0
LINE
  5
5C8
330
5C5
100
AcDbEntity
  8
6021540
  6
Continuous
 62
     7
100
AcDbLine
 10
213.6143921657
 20
118.0173096062
 30
0.0
 11
213.6143921657
 21
117.9763693323
 31
0.0
  0
LINE
  5
5C9
330
5C5
100
AcDbEntity
  8
6021540
  6
Continuous
 62
     7
100
AcDbLine
 10
213.6143921657
 20
117.9763693323
 30
0.0
 11
213.6598921657
 21
117.9763693323
 31
0.0
  0
LINE
  5
5CA
330
5C5
100
AcDbEntity
  8
6021540
  6
Continuous
 62
     7
100
AcDbLine
 10
213.6143921657
 20
116.9993096062
 30
0.0
 11
213.6143921657
 21
117.9763693323
 31
0.0
  0
LINE
  5
5CB
330
5C5
100
AcDbEntity
  8
6021540
  6
Continuous
 62
     7
100
AcDbLine
 10
213.6598921657
 20
116.9993096062
 30
0.0
 11
213.6598921657
 21
117.9763693323
 31
0.0
  0
ARC
  5
5CC
330
5C5
100
AcDbEntity
  8
6021540
  6
Continuous
 62
     7
100
AcDbCircle
 10
213.7053921657
 20
116.9993096062
 30
0.0
 40
0.0909999999999953
100
AcDbArc
 50
180.0
 51
270.0
  0
LINE
  5
5CD
330
5C5
100
AcDbEntity
  8
6021540
  6
Continuous
 62
     7
100
AcDbLine
 10
213.7053921657
 20
116.9083096062
 30
0.0
 11
235.2733921657
 21
116.9083096062
 31
0.0
  0
ARC
  5
5CE
330
5C5
100
AcDbEntity
  8
6021540
  6
Continuous
 62
     7
100
AcDbCircle
 10
235.2733921657
 20
116.9993096062
 30
0.0
 40
0.0910000000000011
100
AcDbArc
 50
270.0
 51
0.0
  0
ARC
  5
5CF
330
5C5
100
AcDbEntity
  8
6021540
  6
Continuous
 62
     7
100
AcDbCircle
 10
235.2733921657
 20
131.5833096062
 30
0.0
 40
0.0909999999999994
100
AcDbArc
 50
0.0
 51
90.0
  0
LINE
  5
5D0
330
5C5
100
AcDbEntity
  8
6021540
  6
Continuous
 62
     7
100
AcDbLine
 10
234.8213324397
 20
131.6743096062
 30
0.0
 11
234.8213324397
 21
131.6288096062
 31
0.0
  0
LINE
  5
5D1
330
5C5
100
AcDbEntity
  8
6021540
  6
Continuous
 62
     7
100
AcDbLine
 10
234.8213324397
 20
131.6288096062
 30
0.0
 11
235.2733921657
 21
131.6288096062
 31
0.0
  0
LINE
  5
5D2
330
5C5
100
AcDbEntity
  8
6021540
  6
Continuous
 62
     7
100
AcDbLine
 10
235.3188921657
 20
131.5833096062
 30
0.0
 11
235.3188921657
 21
116.9993096062
 31
0.0
  0
LINE
  5
5D3
330
5C5
100
AcDbEntity
  8
6021540
  6
Continuous
 62
     7
100
AcDbLine
 10
213.6598921657
 20
118.0173096062
 30
0.0
 11
213.6598921657
 21
117.9763693323
 31
0.0
  0
LINE
  5
5D4
330
5C5
100
AcDbEntity
  8
6021540
  6
Continuous
 62
     7
100
AcDbLine
 10
213.7053921657
 20
116.9538096062
 30
0.0
 11
235.2733921657
 21
116.9538096062
 31
0.0
  0
LINE
  5
5D5
330
5C5
100
AcDbEntity
  8
6021540
  6
Continuous
 62
     7
100
AcDbLine
 10
235.3643921657
 20
131.5833096062
 30
0.0
 11
235.3643921657
 21
116.9993096062
 31
0.0
  0
LINE
  5
5D6
330
5C5
100
AcDbEntity
  8
6021540
  6
Continuous
 62
     7
100
AcDbLine
 10
234.8213324397
 20
131.6743096062
 30
0.0
 11
234.2553921657
 21
131.6743096062
 31
0.0
  0
ARC
  5
5D7
330
5C5
100
AcDbEntity
  8
6021540
  6
Continuous
 62
     7
100
AcDbCircle
 10
234.2553921657
 20
131.5833096062
 30
0.0
 40
0.0909999999999966
100
AcDbArc
 50
90.0
 51
166.9809664824
  0
LINE
  5
5D8
330
5C5
100
AcDbEntity
  8
6021540
  6
Continuous
 62
     7
100
AcDbLine
 10
234.8213324397
 20
131.6288096062
 30
0.0
 11
234.2553921657
 21
131.6288096062
 31
0.0
  0
LINE
  5
5D9
330
5C5
100
AcDbEntity
  8
6021540
  6
Continuous
 62
     7
100
AcDbLine
 10
234.8213324397
 20
131.6743096062
 30
0.0
 11
235.2733921657
 21
131.6743096062
 31
0.0
  0
ARC
  5
5DA
330
5C5
100
AcDbEntity
  8
6021540
  6
Continuous
 62
     7
100
AcDbCircle
 10
235.2733921657
 20
131.5833096062
 30
0.0
 40
0.0454999999999997
100
AcDbArc
 50
0.0
 51
90.0
  0
ARC
  5
5DB
330
5C5
100
AcDbEntity
  8
6021540
  6
Continuous
 62
     7
100
AcDbCircle
 10
234.2553921657
 20
131.5833096062
 30
0.0
 40
0.0454999999999983
100
AcDbArc
 50
90.0
 51
153.2210584075
  0
ARC
  5
5DC
330
5C5
100
AcDbEntity
  8
6021540
  6
Continuous
 62
     7
100
AcDbCircle
 10
235.2733921657
 20
116.9993096062
 30
0.0
 40
0.0455
100
AcDbArc
 50
270.0
 51
0.0
  0
ARC
  5
5DD
330
5C5
100
AcDbEntity
  8
6021540
  6
Continuous
 62
     7
100
AcDbCircle
 10
213.7053921657
 20
116.9993096062
 30
0.0
 40
0.0455000000000011
100
AcDbArc
 50
180.0
 51
270.0
  0
ARC
  5
5DE
330
5C5
100
AcDbEntity
  8
6021540
  6
Continuous
 62
     7
100
AcDbCircle
 10
213.7053921657
 20
118.0173096062
 30
0.0
 40
0.0455000000000011
100
AcDbArc
 50
143.3404925119
 51
180.0
  0
LINE
  5
5DF
330
5C5
100
AcDbEntity
  8
6021540
  6
Continuous
 62
     7
100
AcDbLine
 10
216.9991421657
 20
116.8623096063
 30
0.0
 11
215.7296421657
 21
116.8623096063
 31
0.0
  0
LINE
  5
5E0
330
5C5
100
AcDbEntity
  8
6021540
  6
Continuous
 62
     7
100
AcDbLine
 10
215.7296421657
 20
116.9083096062
 30
0.0
 11
215.7296421657
 21
116.8623096063
 31
0.0
  0
LINE
  5
5E1
330
5C5
100
AcDbEntity
  8
6021540
  6
Continuous
 62
     7
100
AcDbLine
 10
216.9991421657
 20
116.8623096063
 30
0.0
 11
216.9991421657
 21
116.9083096062
 31
0.0
  0
CIRCLE
  5
5E2
330
5C5
100
AcDbEntity
  8
6601630
  6
Continuous
 62
     7
100
AcDbCircle
 10
218.4438921657
 20
120.5288096062
 30
0.0
 40
0.5
  0
CIRCLE
  5
5E3
330
5C5
100
AcDbEntity
  8
6601630
  6
Continuous
 62
     7
100
AcDbCircle
 10
216.5438921657
 20
120.5288096062
 30
0.0
 40
0.635
  0
CIRCLE
  5
5E4
330
5C5
100
AcDbEntity
  8
6601630
  6
Continuous
 62
     7
100
AcDbCircle
 10
222.7688921657
 20
121.7038096062
 30
0.0
 40
0.0875
  0
CIRCLE
  5
5E5
330
5C5
100
AcDbEntity
  8
6601630
  6
Continuous
 62
     7
100
AcDbCircle
 10
222.7688921657
 20
129.2038096062
 30
0.0
 40
0.0875
  0
CIRCLE
  5
5E6
330
5C5
100
AcDbEntity
  8
6601630
  6
Continuous
 62
     7
100
AcDbCircle
 10
218.1688921657
 20
129.2038096062
 30
0.0
 40
0.0875
  0
CIRCLE
  5
5E7
330
5C5
100
AcDbEntity
  8
6601630
  6
Continuous
 62
     7
100
AcDbCircle
 10
218.1688921657
 20
121.7038096062
 30
0.0
 40
0.0875
  0
LINE
  5
5E8
330
5C5
100
AcDbEntity
  8
6601630
  6
Continuous
 62
     7
100
AcDbLine
 10
235.2577921657
 20
131.6038096062
 30
0.0
 11
235.2577921657
 21
131.5428096062
 31
0.0
  0
LINE
  5
5E9
330
5C5
100
AcDbEntity
  8
6601630
  6
Continuous
 62
     7
100
AcDbLine
 10
235.2577921657
 20
131.5428096062
 30
0.0
 11
235.1968921657
 21
131.4818096062
 31
0.0
  0
LINE
  5
5EA
330
5C5
100
AcDbEntity
  8
6601630
  6
Continuous
 62
     7
100
AcDbLine
 10
213.7299921657
 20
131.6038096062
 30
0.0
 11
213.7299921657
 21
131.5428096062
 31
0.0
  0
LINE
  5
5EB
330
5C5
100
AcDbEntity
  8
6601630
  6
Continuous
 62
     7
100
AcDbLine
 10
213.7299921657
 20
131.5428096062
 30
0.0
 11
213.7908921657
 21
131.4818096062
 31
0.0
  0
LINE
  5
5EC
330
5C5
100
AcDbEntity
  8
6601630
  6
Continuous
 62
     7
100
AcDbLine
 10
235.2577921657
 20
131.6038096062
 30
0.0
 11
213.7299921657
 21
131.6038096062
 31
0.0
  0
LINE
  5
5ED
330
5C5
100
AcDbEntity
  8
6601630
  6
Continuous
 62
     7
100
AcDbLine
 10
213.6688921657
 20
131.5427096062
 30
0.0
 11
213.7298921657
 21
131.5427096062
 31
0.0
  0
LINE
  5
5EE
330
5C5
100
AcDbEntity
  8
6601630
  6
Continuous
 62
     7
100
AcDbLine
 10
213.7298921657
 20
131.5427096062
 30
0.0
 11
213.7908921657
 21
131.4818096062
 31
0.0
  0
LINE
  5
5EF
330
5C5
100
AcDbEntity
  8
6601630
  6
Continuous
 62
     7
100
AcDbLine
 10
213.6688921657
 20
117.0149096062
 30
0.0
 11
213.7298921657
 21
117.0149096062
 31
0.0
  0
LINE
  5
5F0
330
5C5
100
AcDbEntity
  8
6601630
  6
Continuous
 62
     7
100
AcDbLine
 10
213.7298921657
 20
117.0149096062
 30
0.0
 11
213.7908921657
 21
117.0758096062
 31
0.0
  0
LINE
  5
5F1
330
5C5
100
AcDbEntity
  8
6601630
  6
Continuous
 62
     7
100
AcDbLine
 10
213.6688921657
 20
131.5427096062
 30
0.0
 11
213.6688921657
 21
117.0149096062
 31
0.0
  0
LINE
  5
5F2
330
5C5
100
AcDbEntity
  8
6601630
  6
Continuous
 62
     7
100
AcDbLine
 10
235.3188921657
 20
117.0149096062
 30
0.0
 11
235.2578921657
 21
117.0149096062
 31
0.0
  0
LINE
  5
5F3
330
5C5
100
AcDbEntity
  8
6601630
  6
Continuous
 62
     7
100
AcDbLine
 10
235.2578921657
 20
117.0149096062
 30
0.0
 11
235.1968921657
 21
117.0758096062
 31
0.0
  0
LINE
  5
5F4
330
5C5
100
AcDbEntity
  8
6601630
  6
Continuous
 62
     7
100
AcDbLine
 10
235.2578921657
 20
131.5427096062
 30
0.0
 11
235.1968921657
 21
131.4818096062
 31
0.0
  0
LINE
  5
5F5
330
5C5
100
AcDbEntity
  8
6601630
  6
Continuous
 62
     7
100
AcDbLine
 10
235.3188921657
 20
131.5427096062
 30
0.0
 11
235.2578921657
 21
131.5427096062
 31
0.0
  0
LINE
  5
5F6
330
5C5
100
AcDbEntity
  8
6601630
  6
Continuous
 62
     7
100
AcDbLine
 10
213.7299921657
 20
116.9538096062
 30
0.0
 11
213.7299921657
 21
117.0148096062
 31
0.0
  0
LINE
  5
5F7
330
5C5
100
AcDbEntity
  8
6601630
  6
Continuous
 62
     7
100
AcDbLine
 10
213.7299921657
 20
117.0148096062
 30
0.0
 11
213.7908921657
 21
117.0758096062
 31
0.0
  0
LINE
  5
5F8
330
5C5
100
AcDbEntity
  8
6601630
  6
Continuous
 62
     7
100
AcDbLine
 10
235.2577921657
 20
116.9538096062
 30
0.0
 11
235.2577921657
 21
117.0148096062
 31
0.0
  0
LINE
  5
5F9
330
5C5
100
AcDbEntity
  8
6601630
  6
Continuous
 62
     7
100
AcDbLine
 10
235.2577921657
 20
117.0148096062
 30
0.0
 11
235.1968921657
 21
117.0758096062
 31
0.0
  0
CIRCLE
  5
5FA
330
5C5
100
AcDbEntity
  8
6601630
  6
Continuous
 62
     7
100
AcDbCircle
 10
230.4438921657
 20
130.9788096062
 30
0.0
 40
0.125
  0
CIRCLE
  5
5FB
330
5C5
100
AcDbEntity
  8
6601630
  6
Continuous
 62
     7
100
AcDbCircle
 10
230.4438921657
 20
129.9788096062
 30
0.0
 40
0.125
  0
CIRCLE
  5
5FC
330
5C5
100
AcDbEntity
  8
6601630
  6
Continuous
 62
     7
100
AcDbCircle
 10
233.0938921657
 20
129.9788096062
 30
0.0
 40
0.125
  0
CIRCLE
  5
5FD
330
5C5
100
AcDbEntity
  8
6601630
  6
Continuous
 62
     7
100
AcDbCircle
 10
233.0938921657
 20
130.9788096062
 30
0.0
 40
0.125
  0
CIRCLE
  5
5FE
330
5C5
100
AcDbEntity
  8
6601630
  6
Continuous
 62
     7
100
AcDbCircle
 10
214.7188921657
 20
129.9788096062
 30
0.0
 40
0.125
  0
CIRCLE
  5
5FF
330
5C5
100
AcDbEntity
  8
6601630
  6
Continuous
 62
     7
100
AcDbCircle
 10
217.3688921657
 20
129.9788096062
 30
0.0
 40
0.125
  0
CIRCLE
  5
600
330
5C5
100
AcDbEntity
  8
6601630
  6
Continuous
 62
     7
100
AcDbCircle
 10
217.3688921657
 20
130.9788096062
 30
0.0
 40
0.125
  0
CIRCLE
  5
601
330
5C5
100
AcDbEntity
  8
6601630
  6
Continuous
 62
     7
100
AcDbCircle
 10
214.7188921657
 20
130.9788096062
 30
0.0
 40
0.125
  0
CIRCLE
  5
602
330
5C5
100
AcDbEntity
  8
6601630
  6
Continuous
 62
     7
100
AcDbCircle
 10
231.7688921657
 20
130.4788096062
 30
0.0
 40
0.24
  0
CIRCLE
  5
603
330
5C5
100
AcDbEntity
  8
6601630
  6
Continuous
 62
     7
100
AcDbCircle
 10
216.0438921657
 20
130.4788096062
 30
0.0
 40
0.24
  0
CIRCLE
  5
604
330
5C5
100
AcDbEntity
  8
6601630
  6
Continuous
 62
     7
100
AcDbCircle
 10
221.1188921657
 20
121.5788096062
 30
0.0
 40
0.125
  0
CIRCLE
  5
605
330
5C5
100
AcDbEntity
  8
6601630
  6
Continuous
 62
     7
100
AcDbCircle
 10
221.1188921657
 20
122.7288096062
 30
0.0
 40
0.125
  0
CIRCLE
  5
606
330
5C5
100
AcDbEntity
  8
6601630
  6
Continuous
 62
     7
100
AcDbCircle
 10
221.1188921657
 20
124.5288096062
 30
0.0
 40
0.125
  0
CIRCLE
  5
607
330
5C5
100
AcDbEntity
  8
6601630
  6
Continuous
 62
     7
100
AcDbCircle
 10
221.1188921657
 20
126.3288096062
 30
0.0
 40
0.125
  0
CIRCLE
  5
608
330
5C5
100
AcDbEntity
  8
6601630
  6
Continuous
 62
     7
100
AcDbCircle
 10
221.1188921657
 20
120.3788096062
 30
0.0
 40
0.125
  0
LINE
  5
609
330
5C5
100
AcDbEntity
  8
6301665
  6
Continuous
 62
     7
100
AcDbLine
 10
217.4762653467
 20
130.0428096062
 30
0.0
 11
217.2615189847
 21
130.0428096062
 31
0.0
  0
LINE
  5
60A
330
5C5
100
AcDbEntity
  8
6301665
  6
Continuous
 62
     7
100
AcDbLine
 10
217.2781783299
 20
130.8928096062
 30
0.0
 11
217.4596060015
 21
130.8928096062
 31
0.0
  0
LINE
  5
60B
330
5C5
100
AcDbEntity
  8
6301665
  6
Continuous
 62
     7
100
AcDbLine
 10
216.2641735486
 20
130.5740782387
 30
0.0
 11
216.2365379131
 21
130.6219445636
 31
0.0
  0
LINE
  5
60C
330
5C5
100
AcDbEntity
  8
6301665
  6
Continuous
 62
     7
100
AcDbLine
 10
216.068355148
 20
130.7175596062
 30
0.0
 11
216.0194291835
 21
130.7175596062
 31
0.0
  0
LINE
  5
60D
330
5C5
100
AcDbEntity
  8
6301665
  6
Continuous
 62
     7
100
AcDbLine
 10
215.847231805
 20
130.6163766899
 30
0.0
 11
215.8264253962
 21
130.5803389327
 31
0.0
  0
LINE
  5
60E
330
5C5
100
AcDbEntity
  8
6301665
  6
Continuous
 62
     7
100
AcDbLine
 10
215.8264253962
 20
130.3772802798
 30
0.0
 11
215.847231805
 21
130.3412425226
 31
0.0
  0
LINE
  5
60F
330
5C5
100
AcDbEntity
  8
6301665
  6
Continuous
 62
     7
100
AcDbLine
 10
216.0194291835
 20
130.2400596062
 30
0.0
 11
216.068355148
 21
130.2400596062
 31
0.0
  0
LINE
  5
610
330
5C5
100
AcDbEntity
  8
6301665
  6
Continuous
 62
     7
100
AcDbLine
 10
216.2365379131
 20
130.3356746489
 30
0.0
 11
216.2641735486
 21
130.3835409738
 31
0.0
  0
LINE
  5
611
330
5C5
100
AcDbEntity
  8
6301665
  6
Continuous
 62
     7
100
AcDbLine
 10
233.2012653467
 20
130.0428096062
 30
0.0
 11
232.9865189847
 21
130.0428096062
 31
0.0
  0
LINE
  5
612
330
5C5
100
AcDbEntity
  8
6301665
  6
Continuous
 62
     7
100
AcDbLine
 10
233.0031783299
 20
130.8928096062
 30
0.0
 11
233.1846060015
 21
130.8928096062
 31
0.0
  0
LINE
  5
613
330
5C5
100
AcDbEntity
  8
6301665
  6
Continuous
 62
     7
100
AcDbLine
 10
231.793355148
 20
130.7175596062
 30
0.0
 11
231.7444291835
 21
130.7175596062
 31
0.0
  0
LINE
  5
614
330
5C5
100
AcDbEntity
  8
6301665
  6
Continuous
 62
     7
100
AcDbLine
 10
231.5876179356
 20
130.6360980467
 30
0.0
 11
231.5420392655
 21
130.5571534743
 31
0.0
  0
LINE
  5
615
330
5C5
100
AcDbEntity
  8
6301665
  6
Continuous
 62
     7
100
AcDbLine
 10
231.5420392655
 20
130.4004657382
 30
0.0
 11
231.5876179356
 21
130.3215211658
 31
0.0
  0
LINE
  5
616
330
5C5
100
AcDbEntity
  8
6301665
  6
Continuous
 62
     7
100
AcDbLine
 10
231.7444291835
 20
130.2400596062
 30
0.0
 11
231.793355148
 21
130.2400596062
 31
0.0
  0
LINE
  5
617
330
5C5
100
AcDbEntity
  8
6802440
  6
Continuous
 62
     7
100
AcDbLine
 10
213.6233921657
 20
118.2631901542
 30
0.0
 11
213.6233921657
 21
131.5583096062
 31
0.0
  0
LINE
  5
618
330
5C5
100
AcDbEntity
  8
6802440
  6
Continuous
 62
     7
100
AcDbLine
 10
213.7143921657
 20
131.6038096062
 30
0.0
 11
213.7299921657
 21
131.6038096062
 31
0.0
  0
ARC
  5
619
330
5C5
100
AcDbEntity
  8
6802440
  6
Continuous
 62
     7
100
AcDbCircle
 10
213.7143921657
 20
131.5583096062
 30
0.0
 40
0.0454999999999997
100
AcDbArc
 50
90.0
 51
180.0
  0
LINE
  5
61A
330
5C5
100
AcDbEntity
  8
6802440
  6
Continuous
 62
     7
100
AcDbLine
 10
213.6688921657
 20
131.5427096062
 30
0.0
 11
213.6688921657
 21
131.5583096062
 31
0.0
  0
LINE
  5
61B
330
5C5
100
AcDbEntity
  8
6802440
  6
Continuous
 62
     7
100
AcDbLine
 10
213.7143921657
 20
131.6493096062
 30
0.0
 11
214.5414518917
 21
131.6493096062
 31
0.0
  0
ARC
  5
61C
330
5C5
100
AcDbEntity
  8
6802440
  6
Continuous
 62
     7
100
AcDbCircle
 10
213.7143921657
 20
131.5583096062
 30
0.0
 40
0.0909999999999994
100
AcDbArc
 50
90.0
 51
180.0
  0
LINE
  5
61D
330
5C5
100
AcDbEntity
  8
6802440
  6
Continuous
 62
     7
100
AcDbLine
 10
213.6688921657
 20
118.2631901542
 30
0.0
 11
213.6233921657
 21
118.2631901542
 31
0.0
  0
LINE
  5
61E
330
5C5
100
AcDbEntity
  8
6802440
  6
Continuous
 62
     7
100
AcDbLine
 10
213.6233921657
 20
118.2403096062
 30
0.0
 11
213.6233921657
 21
118.2631901542
 31
0.0
  0
LINE
  5
61F
330
5C5
100
AcDbEntity
  8
6802440
  6
Continuous
 62
     7
100
AcDbLine
 10
214.5414518917
 20
131.6038096062
 30
0.0
 11
214.5414518917
 21
131.6493096062
 31
0.0
  0
LINE
  5
620
330
5C5
100
AcDbEntity
  8
6802440
  6
Continuous
 62
     7
100
AcDbLine
 10
214.5414518917
 20
131.6493096062
 30
0.0
 11
214.7823921657
 21
131.6493096062
 31
0.0
  0
ARC
  5
621
330
5C5
100
AcDbEntity
  8
6802440
  6
Continuous
 62
     7
100
AcDbCircle
 10
213.7143921657
 20
118.2403096062
 30
0.0
 40
0.0910000000000008
100
AcDbArc
 50
180.0
 51
240.0
  0
ARC
  5
622
330
5C5
100
AcDbEntity
  8
6802440
  6
Continuous
 62
     7
100
AcDbCircle
 10
214.7823921657
 20
131.5583096062
 30
0.0
 40
0.0909999999999994
100
AcDbArc
 50
30.0
 51
90.0
  0
LINE
  5
623
330
5C5
100
AcDbEntity
  8
6802440
  6
Continuous
 62
     7
100
AcDbLine
 10
214.8278921657
 20
131.0399978404
 30
0.0
 11
214.8278921657
 21
130.9176213721
 31
0.0
  0
LINE
  5
624
330
5C5
100
AcDbEntity
  8
1.5M_PHV_T_LOOSE
  6
Continuous
 62
     7
100
AcDbLine
 10
215.4143921657
 20
132.4243096062
 30
0.0
 11
215.4143921657
 21
131.6038096062
 31
0.0
  0
LINE
  5
625
330
5C5
100
AcDbEntity
  8
1.5M_PHV_T_LOOSE
  6
Continuous
 62
     7
100
AcDbLine
 10
234.1643921657
 20
132.4243096062
 30
0.0
 11
234.1643921657
 21
131.6038096062
 31
0.0
  0
LINE
  5
626
330
5C5
100
AcDbEntity
  8
1.5M_PHV_T_LOOSE
  6
Continuous
 62
     7
100
AcDbLine
 10
235.4243921657
 20
132.7243096062
 30
0.0
 11
235.6893921657
 21
132.4593096062
 31
0.0
  0
LINE
  5
627
330
5C5
100
AcDbEntity
  8
1.5M_PHV_T_LOOSE
  6
Continuous
 62
     7
100
AcDbLine
 10
235.6893921657
 20
132.4593096062
 30
0.0
 11
235.6893921657
 21
132.4243096062
 31
0.0
  0
LINE
  5
628
330
5C5
100
AcDbEntity
  8
1.5M_PHV_T_LOOSE
  6
Continuous
 62
     7
100
AcDbLine
 10
235.4243921657
 20
132.7243096062
 30
0.0
 11
214.1543921657
 21
132.7243096062
 31
0.0
  0
LINE
  5
629
330
5C5
100
AcDbEntity
  8
1.5M_PHV_T_LOOSE
  6
Continuous
 62
     7
100
AcDbLine
 10
214.1543921657
 20
132.7243096062
 30
0.0
 11
213.8893921657
 21
132.4593096062
 31
0.0
  0
LINE
  5
62A
330
5C5
100
AcDbEntity
  8
1.5M_PHV_T_LOOSE
  6
Continuous
 62
     7
100
AcDbLine
 10
235.6893921657
 20
132.4593096062
 30
0.0
 11
213.8893921657
 21
132.4593096062
 31
0.0
  0
LINE
  5
62B
330
5C5
100
AcDbEntity
  8
1.5M_PHV_T_LOOSE
  6
Continuous
 62
     7
100
AcDbLine
 10
213.8893921657
 20
132.4593096062
 30
0.0
 11
213.8893921657
 21
132.4243096062
 31
0.0
  0
LINE
  5
62C
330
5C5
100
AcDbEntity
  8
1.5M_PHV_T_LOOSE
  6
Continuous
 62
     7
100
AcDbLine
 10
235.6893921657
 20
132.4243096062
 30
0.0
 11
213.8893921657
 21
132.4243096062
 31
0.0
  0
CIRCLE
  5
62D
330
5C5
100
AcDbEntity
  8
1.5M_PHV_T_LOOSE
  6
Continuous
 62
     7
100
AcDbCircle
 10
233.4143921657
 20
131.8493096062
 30
0.0
 40
0.125
  0
CIRCLE
  5
62E
330
5C5
100
AcDbEntity
  8
1.5M_PHV_T_LOOSE
  6
Continuous
 62
     7
100
AcDbCircle
 10
217.6143921657
 20
131.8493096062
 30
0.0
 40
0.125
  0
LINE
  5
62F
330
5C5
100
AcDbEntity
  8
1.5M_T_R_LOOSE_G
  6
Continuous
 62
     7
100
AcDbLine
 10
233.4143921657
 20
131.7243096062
 30
0.0
 11
233.4143921657
 21
131.9743096062
 31
0.0
  0
ENDBLK
  5
631
330
5C5
100
AcDbEntity
  8
0
100
AcDbBlockEnd
  0
BLOCK
  5
684
330
632
100
AcDbEntity
  8
0
100
AcDbBlockBegin
  2
SE5
 70
     0
 10
0.0
 20
0.0
 30
0.0
  3
SE5
  1

  0
LINE
  5
634
330
632
100
AcDbEntity
  8
6021540
  6
Continuous
 62
     7
100
AcDbLine
 10
101.753771229
 20
118.0628096062
 30
0.0
 11
102.4680547861
 21
118.0628096062
 31
0.0
  0
LINE
  5
635
330
632
100
AcDbEntity
  8
6021540
  6
Continuous
 62
     7
100
AcDbLine
 10
136.7578020132
 20
118.0628096062
 30
0.0
 11
137.3390240018
 21
118.0628096062
 31
0.0
  0
LINE
  5
636
330
632
100
AcDbEntity
  8
6021540
  6
Continuous
 62
     7
100
AcDbLine
 10
171.628771229
 20
118.0628096062
 30
0.0
 11
172.3430547861
 21
118.0628096062
 31
0.0
  0
LINE
  5
637
330
632
100
AcDbEntity
  8
6021540
  6
Continuous
 62
     7
100
AcDbLine
 10
101.7546322194
 20
118.1083096062
 30
0.0
 11
102.4671937957
 21
118.1083096062
 31
0.0
  0
LINE
  5
638
330
632
100
AcDbEntity
  8
6021540
  6
Continuous
 62
     7
100
AcDbLine
 10
136.7391800856
 20
118.1083096062
 30
0.0
 11
137.3576459294
 21
118.1083096062
 31
0.0
  0
LINE
  5
639
330
632
100
AcDbEntity
  8
6021540
  6
Continuous
 62
     7
100
AcDbLine
 10
171.6296322194
 20
118.1083096062
 30
0.0
 11
172.3421937957
 21
118.1083096062
 31
0.0
  0
LINE
  5
63A
330
632
100
AcDbEntity
  8
6021540
  6
Continuous
 62
     7
100
AcDbLine
 10
178.1734130075
 20
131.6743096062
 30
0.0
 11
178.1734130075
 21
131.5833096062
 31
0.0
  0
LINE
  5
63B
330
632
100
AcDbEntity
  8
6021540
  6
Continuous
 62
     7
100
AcDbLine
 10
178.1734130075
 20
116.9993096062
 30
0.0
 11
178.1734130075
 21
116.9083096062
 31
0.0
  0
LINE
  5
63C
330
632
100
AcDbEntity
  8
6021540
  6
Continuous
 62
     7
100
AcDbLine
 10
95.9234130075
 20
116.9083096062
 30
0.0
 11
95.9234130075
 21
116.9993096062
 31
0.0
  0
LINE
  5
63D
330
632
100
AcDbEntity
  8
6021540
  6
Continuous
 62
     7
100
AcDbLine
 10
95.9234130075
 20
131.5833096062
 30
0.0
 11
95.9234130075
 21
131.6743096062
 31
0.0
  0
LINE
  5
63E
330
632
100
AcDbEntity
  8
6021540
  6
Continuous
 62
     7
100
AcDbLine
 10
178.1734130075
 20
116.9083096062
 30
0.0
 11
95.9234130075
 21
116.9083096062
 31
0.0
  0
LINE
  5
63F
330
632
100
AcDbEntity
  8
6021540
  6
Continuous
 62
     7
100
AcDbLine
 10
178.1734130075
 20
116.9993096062
 30
0.0
 11
178.1734130075
 21
131.5833096062
 31
0.0
  0
LINE
  5
640
330
632
100
AcDbEntity
  8
6021540
  6
Continuous
 62
     7
100
AcDbLine
 10
95.9234130075
 20
131.5833096062
 30
0.0
 11
95.9234130075
 21
116.9993096062
 31
0.0
  0
LINE
  5
641
330
632
100
AcDbEntity
  8
6021540
  6
Continuous
 62
     7
100
AcDbLine
 10
95.9234130075
 20
131.6743096062
 30
0.0
 11
178.1734130075
 21
131.6743096062
 31
0.0
  0
CIRCLE
  5
642
330
632
100
AcDbEntity
  8
6021540
  6
Continuous
 62
     7
100
AcDbCircle
 10
177.7734130075
 20
124.2788096062
 30
0.0
 40
0.1625
  0
CIRCLE
  5
643
330
632
100
AcDbEntity
  8
6021540
  6
Continuous
 62
     7
100
AcDbCircle
 10
177.7734130075
 20
130.3788096062
 30
0.0
 40
0.1625
  0
CIRCLE
  5
644
330
632
100
AcDbEntity
  8
6021540
  6
Continuous
 62
     7
100
AcDbCircle
 10
96.3234130075
 20
118.1788096062
 30
0.0
 40
0.1625
  0
CIRCLE
  5
645
330
632
100
AcDbEntity
  8
6021540
  6
Continuous
 62
     7
100
AcDbCircle
 10
96.3234130075
 20
124.2788096062
 30
0.0
 40
0.1625
  0
CIRCLE
  5
646
330
632
100
AcDbEntity
  8
6021540
  6
Continuous
 62
     7
100
AcDbCircle
 10
96.3234130075
 20
130.3788096062
 30
0.0
 40
0.1625
  0
CIRCLE
  5
647
330
632
100
AcDbEntity
  8
6021540
  6
Continuous
 62
     7
100
AcDbCircle
 10
177.7734130075
 20
118.1788096062
 30
0.0
 40
0.1625
  0
LINE
  5
648
330
632
100
AcDbEntity
  8
6021540
  6
Continuous
 62
     7
100
AcDbLine
 10
100.9831630075
 20
116.8623096063
 30
0.0
 11
99.7136630075
 21
116.8623096063
 31
0.0
  0
LINE
  5
649
330
632
100
AcDbEntity
  8
6021540
  6
Continuous
 62
     7
100
AcDbLine
 10
103.4831630075
 20
116.8623096063
 30
0.0
 11
102.2136630075
 21
116.8623096063
 31
0.0
  0
CIRCLE
  5
64A
330
632
100
AcDbEntity
  8
6021540
  6
Continuous
 62
     7
100
AcDbCircle
 10
102.1109130075
 20
129.0788096062
 30
0.0
 40
0.3575
  0
CIRCLE
  5
64B
330
632
100
AcDbEntity
  8
6021540
  6
Continuous
 62
     7
100
AcDbCircle
 10
171.9859130075
 20
118.0788096062
 30
0.0
 40
0.3575
  0
CIRCLE
  5
64C
330
632
100
AcDbEntity
  8
6021540
  6
Continuous
 62
     7
100
AcDbCircle
 10
171.9859130075
 20
129.0788096062
 30
0.0
 40
0.3575
  0
CIRCLE
  5
64D
330
632
100
AcDbEntity
  8
6021540
  6
Continuous
 62
     7
100
AcDbCircle
 10
102.1109130075
 20
118.0788096062
 30
0.0
 40
0.3575
  0
CIRCLE
  5
64E
330
632
100
AcDbEntity
  8
6021540
  6
Continuous
 62
     7
100
AcDbCircle
 10
173.8844130075
 20
124.9538096062
 30
0.0
 40
0.2400000000000016
  0
CIRCLE
  5
64F
330
632
100
AcDbEntity
  8
6021540
  6
Continuous
 62
     7
100
AcDbCircle
 10
100.2124130075
 20
124.9538096062
 30
0.0
 40
0.2400000000000016
  0
CIRCLE
  5
650
330
632
100
AcDbEntity
  8
6021540
  6
Continuous
 62
     7
100
AcDbCircle
 10
177.0234130075
 20
129.2583096063
 30
0.0
 40
0.3249999999999976
  0
CIRCLE
  5
651
330
632
100
AcDbEntity
  8
6021540
  6
Continuous
 62
     7
100
AcDbCircle
 10
97.0734130075
 20
118.2083096063
 30
0.0
 40
0.3249999999999975
  0
CIRCLE
  5
652
330
632
100
AcDbEntity
  8
6021540
  6
Continuous
 62
     7
100
AcDbCircle
 10
97.0734130075
 20
129.2583096063
 30
0.0
 40
0.3249999999999975
  0
CIRCLE
  5
653
330
632
100
AcDbEntity
  8
6021540
  6
Continuous
 62
     7
100
AcDbCircle
 10
137.0484130075
 20
118.2083096063
 30
0.0
 40
0.325
  0
CIRCLE
  5
654
330
632
100
AcDbEntity
  8
6021540
  6
Continuous
 62
     7
100
AcDbCircle
 10
137.0484130075
 20
129.2583096063
 30
0.0
 40
0.3250000000000001
  0
CIRCLE
  5
655
330
632
100
AcDbEntity
  8
6021540
  6
Continuous
 62
     7
100
AcDbCircle
 10
177.0234130075
 20
118.2083096063
 30
0.0
 40
0.3249999999999976
  0
LINE
  5
656
330
632
100
AcDbEntity
  8
6021540
  6
Continuous
 62
     7
100
AcDbLine
 10
99.7136630075
 20
116.9083096062
 30
0.0
 11
99.7136630075
 21
116.8623096063
 31
0.0
  0
LINE
  5
657
330
632
100
AcDbEntity
  8
6021540
  6
Continuous
 62
     7
100
AcDbLine
 10
100.9831630075
 20
116.8623096063
 30
0.0
 11
100.9831630075
 21
116.9083096062
 31
0.0
  0
LINE
  5
658
330
632
100
AcDbEntity
  8
6021540
  6
Continuous
 62
     7
100
AcDbLine
 10
102.2136630075
 20
116.9083096062
 30
0.0
 11
102.2136630075
 21
116.8623096063
 31
0.0
  0
LINE
  5
659
330
632
100
AcDbEntity
  8
6021540
  6
Continuous
 62
     7
100
AcDbLine
 10
103.4831630075
 20
116.8623096063
 30
0.0
 11
103.4831630075
 21
116.9083096062
 31
0.0
  0
LINE
  5
65A
330
632
100
AcDbEntity
  8
6601635
  6
Continuous
 62
     7
100
AcDbLine
 10
178.2734130075
 20
131.4818096062
 30
0.0
 11
178.2734130075
 21
117.0758096062
 31
0.0
  0
ARC
  5
65B
330
632
100
AcDbEntity
  8
6601635
  6
Continuous
 62
     7
100
AcDbCircle
 10
178.1514130075
 20
131.4818096062
 30
0.0
 40
0.1219999999999999
100
AcDbArc
 50
30.0
 51
79.6111421845
  0
ARC
  5
65C
330
632
100
AcDbEntity
  8
6601635
  6
Continuous
 62
     7
100
AcDbCircle
 10
178.1514130075
 20
131.4818096062
 30
0.0
 40
0.122000000000016
100
AcDbArc
 50
0.0
 51
30.0
  0
LINE
  5
65D
330
632
100
AcDbEntity
  8
6601635
  6
Continuous
 62
     7
100
AcDbLine
 10
178.2570681068
 20
131.5428096062
 30
0.0
 11
178.1734130075
 21
131.5428096062
 31
0.0
  0
LINE
  5
65E
330
632
100
AcDbEntity
  8
6601635
  6
Continuous
 62
     7
100
AcDbLine
 10
178.1734130075
 20
117.0149096062
 30
0.0
 11
178.2570681068
 21
117.0149096062
 31
0.0
  0
ELLIPSE
  5
65F
330
632
100
AcDbEntity
  8
6601635
  6
Continuous
 62
     7
100
AcDbEllipse
 10
178.1514130075
 20
117.0758096062
 30
0.0
 11
-0.1219999999999832
 21
4.956247107845488E-13
 31
0.0
210
0.0
220
0.0
230
1.0
 40
0.9983606557
 41
2.617993877995702
 42
3.141592653593862
  0
ELLIPSE
  5
660
330
632
100
AcDbEntity
  8
6601635
  6
Continuous
 62
     7
100
AcDbEllipse
 10
178.1514130075
 20
131.4818096062
 30
0.0
 11
-0.1220000000000165
 21
-7.147068191369921E-12
 31
0.0
210
0.0
220
0.0
230
1.0
 40
0.9983606557
 41
3.141592653589793
 42
3.665191429128995
  0
LINE
  5
661
330
632
100
AcDbEntity
  8
6601635
  6
Continuous
 62
     7
100
AcDbLine
 10
178.1734130075
 20
131.5427096062
 30
0.0
 11
178.2570681068
 21
131.5427096062
 31
0.0
  0
CIRCLE
  5
662
330
632
100
AcDbEntity
  8
6601635
  6
Continuous
 62
     7
100
AcDbCircle
 10
177.7734130075
 20
118.1788096062
 30
0.0
 40
0.125
  0
CIRCLE
  5
663
330
632
100
AcDbEntity
  8
6601635
  6
Continuous
 62
     7
100
AcDbCircle
 10
177.7734130075
 20
130.3788096062
 30
0.0
 40
0.125
  0
CIRCLE
  5
664
330
632
100
AcDbEntity
  8
6601635
  6
Continuous
 62
     7
100
AcDbCircle
 10
177.7734130075
 20
124.2788096062
 30
0.0
 40
0.125
  0
LINE
  5
665
330
632
100
AcDbEntity
  8
6601635
  6
Continuous
 62
     7
100
AcDbLine
 10
178.2570681068
 20
117.0148096062
 30
0.0
 11
178.1734130075
 21
117.0148096062
 31
0.0
  0
ARC
  5
666
330
632
100
AcDbEntity
  8
6601635
  6
Continuous
 62
     7
100
AcDbCircle
 10
178.1514130075
 20
117.0758096062
 30
0.0
 40
0.1219999999999999
100
AcDbArc
 50
280.3888578155
 51
330.0
  0
ARC
  5
667
330
632
100
AcDbEntity
  8
6601635
  6
Continuous
 62
     7
100
AcDbCircle
 10
178.1514130075
 20
117.0758096062
 30
0.0
 40
0.1219999999999885
100
AcDbArc
 50
330.0
 51
0.0
  0
LINE
  5
668
330
632
100
AcDbEntity
  8
6601630
  6
Continuous
 62
     7
100
AcDbLine
 10
95.8234130075
 20
131.4818096062
 30
0.0
 11
95.8234130075
 21
117.0758096062
 31
0.0
  0
ARC
  5
669
330
632
100
AcDbEntity
  8
6601630
  6
Continuous
 62
     7
100
AcDbCircle
 10
95.9454130075
 20
131.4818096062
 30
0.0
 40
0.1219999999999999
100
AcDbArc
 50
100.3888578155
 51
150.0
  0
ARC
  5
66A
330
632
100
AcDbEntity
  8
6601630
  6
Continuous
 62
     7
100
AcDbCircle
 10
95.9454130075
 20
131.4818096062
 30
0.0
 40
0.122000000000016
100
AcDbArc
 50
150.0
 51
180.0
  0
LINE
  5
66B
330
632
100
AcDbEntity
  8
6601630
  6
Continuous
 62
     7
100
AcDbLine
 10
95.8397579083
 20
131.5428096062
 30
0.0
 11
95.9234130075
 21
131.5428096062
 31
0.0
  0
LINE
  5
66C
330
632
100
AcDbEntity
  8
6601630
  6
Continuous
 62
     7
100
AcDbLine
 10
95.9234130075
 20
117.0149096062
 30
0.0
 11
95.8397579083
 21
117.0149096062
 31
0.0
  0
ELLIPSE
  5
66D
330
632
100
AcDbEntity
  8
6601630
  6
Continuous
 62
     7
100
AcDbEllipse
 10
95.9454130075
 20
117.0758096062
 30
0.0
 11
0.1220000000000387
 21
1.357298486036628E-12
 31
0.0
210
0.0
220
0.0
230
1.0
 40
0.9983606557
 41
3.141592653589793
 42
3.665191429176922
  0
ELLIPSE
  5
66E
330
632
100
AcDbEntity
  8
6601630
  6
Continuous
 62
     7
100
AcDbEllipse
 10
95.9454130075
 20
131.4818096062
 30
0.0
 11
0.1219999999999943
 21
-7.194237729225540E-12
 31
0.0
210
0.0
220
0.0
230
1.0
 40
0.9983606557
 41
2.617993878050128
 42
3.141592653589793
  0
LINE
  5
66F
330
632
100
AcDbEntity
  8
6601630
  6
Continuous
 62
     7
100
AcDbLine
 10
95.9234130075
 20
131.5427096062
 30
0.0
 11
95.8397579083
 21
131.5427096062
 31
0.0
  0
CIRCLE
  5
670
330
632
100
AcDbEntity
  8
6601630
  6
Continuous
 62
     7
100
AcDbCircle
 10
96.3234130075
 20
118.1788096062
 30
0.0
 40
0.125
  0
CIRCLE
  5
671
330
632
100
AcDbEntity
  8
6601630
  6
Continuous
 62
     7
100
AcDbCircle
 10
96.3234130075
 20
130.3788096062
 30
0.0
 40
0.125
  0
CIRCLE
  5
672
330
632
100
AcDbEntity
  8
6601630
  6
Continuous
 62
     7
100
AcDbCircle
 10
96.3234130075
 20
124.2788096062
 30
0.0
 40
0.125
  0
LINE
  5
673
330
632
100
AcDbEntity
  8
6601630
  6
Continuous
 62
     7
100
AcDbLine
 10
95.8397579083
 20
117.0148096062
 30
0.0
 11
95.9234130075
 21
117.0148096062
 31
0.0
  0
ARC
  5
674
330
632
100
AcDbEntity
  8
6601630
  6
Continuous
 62
     7
100
AcDbCircle
 10
95.9454130075
 20
117.0758096062
 30
0.0
 40
0.1219999999999999
100
AcDbArc
 50
210.0
 51
259.6111421845
  0
ARC
  5
675
330
632
100
AcDbEntity
  8
6601630
  6
Continuous
 62
     7
100
AcDbCircle
 10
95.9454130075
 20
117.0758096062
 30
0.0
 40
0.1219999999999662
100
AcDbArc
 50
180.0
 51
210.0
  0
LINE
  5
676
330
632
100
AcDbEntity
  8
6301665
  6
Continuous
 62
     7
100
AcDbLine
 10
97.2305268198
 20
129.5428096062
 30
0.0
 11
96.9162991953
 21
129.5428096062
 31
0.0
  0
LINE
  5
677
330
632
100
AcDbEntity
  8
6802440
  6
Continuous
 62
     7
100
AcDbLine
 10
172.3363926788
 20
118.1493096062
 30
0.0
 11
171.6354333362
 21
118.1493096062
 31
0.0
  0
LINE
  5
678
330
632
100
AcDbEntity
  8
6802440
  6
Continuous
 62
     7
100
AcDbLine
 10
137.3680127572
 20
118.1493096062
 30
0.0
 11
136.7288132578
 21
118.1493096062
 31
0.0
  0
LINE
  5
679
330
632
100
AcDbEntity
  8
6802440
  6
Continuous
 62
     7
100
AcDbLine
 10
102.4613926788
 20
118.1493096062
 30
0.0
 11
101.7604333362
 21
118.1493096062
 31
0.0
  0
LINE
  5
67A
330
632
100
AcDbEntity
  8
6301665
  6
Continuous
 62
     7
100
AcDbLine
 10
177.1805268198
 20
129.5428096062
 30
0.0
 11
176.8662991953
 21
129.5428096062
 31
0.0
  0
LINE
  5
67B
330
632
100
AcDbEntity
  8
1.5M_PHV_T_LOOSE
  6
Continuous
 62
     7
100
AcDbLine
 10
98.3234130075
 20
132.4243096062
 30
0.0
 11
98.3234130075
 21
131.6743096062
 31
0.0
  0
LINE
  5
67C
330
632
100
AcDbEntity
  8
1.5M_PHV_T_LOOSE
  6
Continuous
 62
     7
100
AcDbLine
 10
175.4734130075
 20
132.4243096062
 30
0.0
 11
175.4734130075
 21
131.6743096062
 31
0.0
  0
LINE
  5
67D
330
632
100
AcDbEntity
  8
1.5M_PHV_T_LOOSE
  6
Continuous
 62
     7
100
AcDbLine
 10
176.7334130075
 20
132.7243096062
 30
0.0
 11
176.9984130075
 21
132.4593096062
 31
0.0
  0
LINE
  5
67E
330
632
100
AcDbEntity
  8
1.5M_PHV_T_LOOSE
  6
Continuous
 62
     7
100
AcDbLine
 10
176.9984130075
 20
132.4593096062
 30
0.0
 11
176.9984130075
 21
132.4243096062
 31
0.0
  0
LINE
  5
67F
330
632
100
AcDbEntity
  8
1.5M_PHV_T_LOOSE
  6
Continuous
 62
     7
100
AcDbLine
 10
176.7334130075
 20
132.7243096062
 30
0.0
 11
97.0634130075
 21
132.7243096062
 31
0.0
  0
LINE
  5
680
330
632
100
AcDbEntity
  8
1.5M_PHV_T_LOOSE
  6
Continuous
 62
     7
100
AcDbLine
 10
97.0634130075
 20
132.7243096062
 30
0.0
 11
96.7984130075
 21
132.4593096062
 31
0.0
  0
LINE
  5
681
330
632
100
AcDbEntity
  8
1.5M_PHV_T_LOOSE
  6
Continuous
 62
     7
100
AcDbLine
 10
176.9984130075
 20
132.4593096062
 30
0.0
 11
96.7984130075
 21
132.4593096062
 31
0.0
  0
LINE
  5
682
330
632
100
AcDbEntity
  8
1.5M_PHV_T_LOOSE
  6
Continuous
 62
     7
100
AcDbLine
 10
96.7984130075
 20
132.4593096062
 30
0.0
 11
96.7984130075
 21
132.4243096062
 31
0.0
  0
LINE
  5
683
330
632
100
AcDbEntity
  8
1.5M_PHV_T_LOOSE
  6
Continuous
 62
     7
100
AcDbLine
 10
176.9984130075
 20
132.4243096062
 30
0.0
 11
96.7984130075
 21
132.4243096062
 31
0.0
  0
ENDBLK
  5
685
330
632
100
AcDbEntity
  8
0
100
AcDbBlockEnd
  0
ENDSEC
  0
SECTION
  2
ENTITIES
  0
TEXT
  5
40
330
1F
100
AcDbEntity
  8
Default
  6
Continuous
 62
     7
100
AcDbText
 10
125.814789986
 20
191.9952469123
 30
0.0
 40
5.0
  1
%%uT1500R
  7
SEACAD_arial_ttfB
 11
125.814789986
 21
196.9952469123
 31
0.0
100
AcDbText
 73
     3
  0
INSERT
  5
43
330
1F
100
AcDbEntity
  8
Default
100
AcDbBlockReference
  2
SE
 10
0.0
 20
0.0
 30
0.0
  0
INSERT
  5
B6
330
1F
100
AcDbEntity
  8
Default
100
AcDbBlockReference
  2
SE1
 10
0.0
 20
0.0
 30
0.0
  0
INSERT
  5
2D5
330
1F
100
AcDbEntity
  8
Default
100
AcDbBlockReference
  2
SE2
 10
0.0
 20
0.0
 30
0.0
  0
INSERT
  5
34C
330
1F
100
AcDbEntity
  8
Default
100
AcDbBlockReference
  2
SE3
 10
0.0
 20
0.0
 30
0.0
  0
INSERT
  5
5C6
330
1F
100
AcDbEntity
  8
Default
100
AcDbBlockReference
  2
SE4
 10
0.0
 20
0.0
 30
0.0
  0
INSERT
  5
633
330
1F
100
AcDbEntity
  8
Default
100
AcDbBlockReference
  2
SE5
 10
0.0
 20
0.0
 30
0.0
  0
ENDSEC
  0
SECTION
  2
OBJECTS
  0
DICTIONARY
  5
C
330
0
100
AcDbDictionary
281
     1
  3
ACAD_GROUP
350
D
  3
ACAD_LAYOUT
350
1A
  3
ACAD_MATERIAL
350
3B
  3
ACAD_MLEADERSTYLE
350
688
  3
ACAD_MLINESTYLE
350
17
  3
ACAD_PLOTSETTINGS
350
19
  3
ACAD_PLOTSTYLENAME
350
E
  3
ACAD_VISUALSTYLE
350
2A
  3
AcDbVariableDictionary
350
686
  0
DICTIONARY
  5
D
102
{ACAD_REACTORS
330
C
102
}
330
C
100
AcDbDictionary
281
     1
  0
DICTIONARY
  5
1A
102
{ACAD_REACTORS
330
C
102
}
330
C
100
AcDbDictionary
281
     1
  3
Layout1
350
1E
  3
Model
350
22
  0
DICTIONARY
  5
3B
102
{ACAD_REACTORS
330
C
102
}
330
C
100
AcDbDictionary
281
     1
  3
ByBlock
350
3D
  3
ByLayer
350
3C
  3
Global
350
3E
  0
DICTIONARY
  5
688
102
{ACAD_REACTORS
330
C
102
}
330
C
100
AcDbDictionary
281
     1
  0
DICTIONARY
  5
17
102
{ACAD_REACTORS
330
C
102
}
330
C
100
AcDbDictionary
281
     1
  3
Standard
350
18
  0
DICTIONARY
  5
19
102
{ACAD_REACTORS
330
C
102
}
330
C
100
AcDbDictionary
281
     1
  0
ACDBDICTIONARYWDFLT
  5
E
102
{ACAD_REACTORS
330
C
102
}
330
C
100
AcDbDictionary
281
     1
  3
Normal
350
F
100
AcDbDictionaryWithDefault
340
F
  0
DICTIONARY
  5
2A
102
{ACAD_REACTORS
330
C
102
}
330
C
100
AcDbDictionary
281
     1
  3
2dWireframe
350
2F
  3
3D Hidden
350
31
  3
3dWireframe
350
30
  3
Basic
350
32
  3
Brighten
350
36
  3
ColorChange
350
3A
  3
Conceptual
350
34
  3
Dim
350
35
  3
Facepattern
350
39
  3
Flat
350
2B
  3
FlatWithEdges
350
2C
  3
Gouraud
350
2D
  3
GouraudWithEdges
350
2E
  3
Linepattern
350
38
  3
Realistic
350
33
  3
Thicken
350
37
  0
DICTIONARY
  5
686
102
{ACAD_REACTORS
330
C
102
}
330
C
100
AcDbDictionary
281
     1
  3
DIMASSOC
350
68B
  3
HIDETEXT
350
68C
  3
PSOLHEIGHT
350
68A
  3
PSOLWIDTH
350
689
  0
LAYOUT
  5
1E
102
{ACAD_REACTORS
330
1A
102
}
330
1A
100
AcDbPlotSettings
  1

  2
none_device
  4

  6

 40
0.0
 41
0.0
 42
0.0
 43
0.0
 44
0.0
 45
0.0
 46
0.0
 47
0.0
 48
0.0
 49
0.0
140
0.0
141
0.0
142
1.0
143
1.0
 70
   688
 72
     0
 73
     0
 74
     5
  7

 75
    16
147
1.0
148
0.0
149
0.0
100
AcDbLayout
  1
Layout1
 70
     1
 71
     1
 10
0.0
 20
0.0
 11
297.0
 21
210.0
 12
0.0
 22
0.0
 32
0.0
 14
0.0
 24
0.0
 34
0.0
 15
297.0
 25
210.0
 35
0.0
146
0.0
 13
0.0
 23
0.0
 33
0.0
 16
1.0
 26
0.0
 36
0.0
 17
0.0
 27
1.0
 37
0.0
 76
     0
330
1B
  0
LAYOUT
  5
22
102
{ACAD_REACTORS
330
1A
102
}
330
1A
100
AcDbPlotSettings
  1

  2
none_device
  4

  6

 40
0.0
 41
0.0
 42
0.0
 43
0.0
 44
0.0
 45
0.0
 46
0.0
 47
0.0
 48
0.0
 49
0.0
140
0.0
141
0.0
142
1.0
143
1.0
 70
  1712
 72
     0
 73
     0
 74
     0
  7

 75
     0
147
1.0
148
0.0
149
0.0
100
AcDbLayout
  1
Model
 70
     1
 71
     0
 10
0.0
 20
0.0
 11
297.0
 21
210.0
 12
0.0
 22
0.0
 32
0.0
 14
0.0
 24
0.0
 34
0.0
 15
297.0
 25
210.0
 35
0.0
146
0.0
 13
0.0
 23
0.0
 33
0.0
 16
1.0
 26
0.0
 36
0.0
 17
0.0
 27
1.0
 37
0.0
 76
     0
330
1F
331
29
  0
MATERIAL
  5
3D
102
{ACAD_REACTORS
330
3B
102
}
102
{ACAD_XDICTIONARY
360
6AF
102
}
330
3B
100
AcDbMaterial
  1
ByBlock
  0
MATERIAL
  5
3C
102
{ACAD_REACTORS
330
3B
102
}
102
{ACAD_XDICTIONARY
360
6AD
102
}
330
3B
100
AcDbMaterial
  1
ByLayer
  0
MATERIAL
  5
3E
102
{ACAD_REACTORS
330
3B
102
}
102
{ACAD_XDICTIONARY
360
6B1
102
}
330
3B
100
AcDbMaterial
  1
Global
  0
MLINESTYLE
  5
18
102
{ACAD_REACTORS
330
17
102
}
330
17
100
AcDbMlineStyle
  2
Standard
 70
     0
  3

 62
   256
 51
90.0
 52
90.0
 71
     2
 49
0.5
 62
   256
  6
BYLAYER
 49
-0.5
 62
   256
  6
BYLAYER
  0
ACDBPLACEHOLDER
  5
F
102
{ACAD_REACTORS
330
E
102
}
330
E
  0
VISUALSTYLE
  5
2F
102
{ACAD_REACTORS
330
2A
102
}
102
{ACAD_XDICTIONARY
360
695
102
}
330
2A
100
AcDbVisualStyle
  2
2dWireframe
 70
     4
 71
     0
 72
     2
 73
     0
 90
        0
 40
-0.6
 41
-30.0
 62
     5
 63
     7
 74
     1
 91
        4
 64
     7
 65
   257
 75
     1
175
     1
 42
1.0
 92
        0
 66
   257
 43
1.0
 76
     1
 77
     6
 78
     2
 67
     7
 79
     5
170
     0
171
     0
290
     0
174
     0
 93
        1
 44
0.0
173
     0
291
     0
 45
0.0
1001
ACAD
1000
AcDbSavedByObjectVersion
1070
     0
  0
VISUALSTYLE
  5
31
102
{ACAD_REACTORS
330
2A
102
}
102
{ACAD_XDICTIONARY
360
699
102
}
330
2A
100
AcDbVisualStyle
  2
3D Hidden
 70
     6
 71
     1
 72
     2
 73
     2
 90
        0
 40
-0.6
 41
-30.0
 62
     5
 63
     7
 74
     2
 91
        2
 64
     7
 65
   257
 75
     2
175
     1
 42
40.0
 92
        0
 66
   257
 43
1.0
 76
     1
 77
     6
 78
     2
 67
     7
 79
     3
170
     0
171
     0
290
     0
174
     0
 93
        1
 44
0.0
173
     0
291
     0
 45
0.0
1001
ACAD
1000
AcDbSavedByObjectVersion
1070
     0
  0
VISUALSTYLE
  5
30
102
{ACAD_REACTORS
330
2A
102
}
102
{ACAD_XDICTIONARY
360
697
102
}
330
2A
100
AcDbVisualStyle
  2
3dWireframe
 70
     5
 71
     0
 72
     2
 73
     0
 90
        0
 40
-0.6
 41
-30.0
 62
     5
 63
     7
 74
     1
 91
        4
 64
     7
 65
   257
 75
     1
175
     1
 42
1.0
 92
        0
 66
   257
 43
1.0
 76
     1
 77
     6
 78
     2
 67
     7
 79
     5
170
     0
171
     0
290
     0
174
     0
 93
        1
 44
0.0
173
     0
291
     0
 45
0.0
1001
ACAD
1000
AcDbSavedByObjectVersion
1070
     0
  0
VISUALSTYLE
  5
32
102
{ACAD_REACTORS
330
2A
102
}
102
{ACAD_XDICTIONARY
360
69B
102
}
330
2A
100
AcDbVisualStyle
  2
Basic
 70
     7
 71
     1
 72
     0
 73
     1
 90
        0
 40
-0.6
 41
-30.0
 62
     5
 63
     7
 74
     0
 91
        4
 64
     7
 65
   257
 75
     1
175
     1
 42
1.0
 92
        8
 66
     7
 43
1.0
 76
     1
 77
     6
 78
     2
 67
     7
 79
     5
170
     0
171
     0
290
     0
174
     0
 93
        1
 44
0.0
173
     0
291
     1
 45
0.0
1001
ACAD
1000
AcDbSavedByObjectVersion
1070
     0
  0
VISUALSTYLE
  5
36
102
{ACAD_REACTORS
330
2A
102
}
102
{ACAD_XDICTIONARY
360
6A3
102
}
330
2A
100
AcDbVisualStyle
  2
Brighten
 70
    12
 71
     2
 72
     2
 73
     0
 90
        0
 40
-0.6
 41
-30.0
 62
     5
 63
     7
 74
     1
 91
        4
 64
     7
 65
   257
 75
     1
175
     1
 42
1.0
 92
        8
 66
     7
 43
1.0
 76
     1
 77
     6
 78
     2
 67
     7
 79
     5
170
     0
171
     0
290
     0
174
     0
 93
        1
 44
50.0
173
     0
291
     1
 45
0.0
1001
ACAD
1000
AcDbSavedByObjectVersion
1070
     0
  0
VISUALSTYLE
  5
3A
102
{ACAD_REACTORS
330
2A
102
}
102
{ACAD_XDICTIONARY
360
6AB
102
}
330
2A
100
AcDbVisualStyle
  2
ColorChange
 70
    16
 71
     2
 72
     2
 73
     3
 90
        0
 40
-0.6
 41
-30.0
 62
     5
 63
     8
 74
     1
 91
        4
 64
     7
 65
   257
 75
     1
175
     1
 42
1.0
 92
        8
 66
     8
 43
1.0
 76
     1
 77
     6
 78
     2
 67
     7
 79
     5
170
     0
171
     0
290
     0
174
     0
 93
        1
 44
0.0
173
     0
291
     1
 45
0.0
1001
ACAD
1000
AcDbSavedByObjectVersion
1070
     0
  0
VISUALSTYLE
  5
34
102
{ACAD_REACTORS
330
2A
102
}
102
{ACAD_XDICTIONARY
360
69F
102
}
330
2A
100
AcDbVisualStyle
  2
Conceptual
 70
     9
 71
     3
 72
     2
 73
     0
 90
        0
 40
-0.6
 41
-30.0
 62
     5
 63
     7
 74
     2
 91
        2
 64
     7
 65
   257
 75
     1
175
     1
 42
40.0
 92
        8
 66
     7
 43
1.0
 76
     1
 77
     6
 78
     2
 67
     7
 79
     3
170
     0
171
     0
290
     0
174
     0
 93
        1
 44
0.0
173
     0
291
     0
 45
0.0
1001
ACAD
1000
AcDbSavedByObjectVersion
1070
     0
  0
VISUALSTYLE
  5
35
102
{ACAD_REACTORS
330
2A
102
}
102
{ACAD_XDICTIONARY
360
6A1
102
}
330
2A
100
AcDbVisualStyle
  2
Dim
 70
    11
 71
     2
 72
     2
 73
     0
 90
        0
 40
-0.6
 41
-30.0
 62
     5
 63
     7
 74
     1
 91
        4
 64
     7
 65
   257
 75
     1
175
     1
 42
1.0
 92
        8
 66
     7
 43
1.0
 76
     1
 77
     6
 78
     2
 67
     7
 79
     5
170
     0
171
     0
290
     0
174
     0
 93
        1
 44
-50.0
173
     0
291
     1
 45
0.0
1001
ACAD
1000
AcDbSavedByObjectVersion
1070
     0
  0
VISUALSTYLE
  5
39
102
{ACAD_REACTORS
330
2A
102
}
102
{ACAD_XDICTIONARY
360
6A9
102
}
330
2A
100
AcDbVisualStyle
  2
Facepattern
 70
    15
 71
     2
 72
     2
 73
     0
 90
        0
 40
-0.6
 41
-30.0
 62
     5
 63
     7
 74
     1
 91
        4
 64
     7
 65
   257
 75
     1
175
     1
 42
1.0
 92
        8
 66
     7
 43
1.0
 76
     1
 77
     6
 78
     2
 67
     7
 79
     5
170
     0
171
     0
290
     0
174
     0
 93
        1
 44
0.0
173
     0
291
     1
 45
0.0
1001
ACAD
1000
AcDbSavedByObjectVersion
1070
     0
  0
VISUALSTYLE
  5
2B
102
{ACAD_REACTORS
330
2A
102
}
102
{ACAD_XDICTIONARY
360
68D
102
}
330
2A
100
AcDbVisualStyle
  2
Flat
 70
     0
 71
     2
 72
     1
 73
     1
 90
        2
 40
-0.6
 41
30.0
 62
     5
 63
     7
 74
     0
 91
        4
 64
     7
 65
   257
 75
     1
175
     1
 42
1.0
 92
        8
 66
     7
 43
1.0
 76
     1
 77
     6
 78
     2
 67
     7
 79
     5
170
     0
171
     0
290
     0
174
     0
 93
       13
 44
0.0
173
     0
291
     1
 45
0.0
1001
ACAD
1000
AcDbSavedByObjectVersion
1070
     0
  0
VISUALSTYLE
  5
2C
102
{ACAD_REACTORS
330
2A
102
}
102
{ACAD_XDICTIONARY
360
68F
102
}
330
2A
100
AcDbVisualStyle
  2
FlatWithEdges
 70
     1
 71
     2
 72
     1
 73
     1
 90
        2
 40
-0.6
 41
30.0
 62
     5
 63
     7
 74
     1
 91
        4
 64
     7
 65
   257
 75
     1
175
     1
 42
1.0
 92
        0
 66
   257
 43
1.0
 76
     1
 77
     6
 78
     2
 67
     7
 79
     5
170
     0
171
     0
290
     0
174
     0
 93
       13
 44
0.0
173
     0
291
     1
 45
0.0
1001
ACAD
1000
AcDbSavedByObjectVersion
1070
     0
  0
VISUALSTYLE
  5
2D
102
{ACAD_REACTORS
330
2A
102
}
102
{ACAD_XDICTIONARY
360
691
102
}
330
2A
100
AcDbVisualStyle
  2
Gouraud
 70
     2
 71
     2
 72
     2
 73
     1
 90
        2
 40
-0.6
 41
30.0
 62
     5
 63
     7
 74
     0
 91
        4
 64
     7
 65
   257
 75
     1
175
     1
 42
1.0
 92
        0
 66
     7
 43
1.0
 76
     1
 77
     6
 78
     2
 67
     7
 79
     5
170
     0
171
     0
290
     0
174
     0
 93
       13
 44
0.0
173
     0
291
     1
 45
0.0
1001
ACAD
1000
AcDbSavedByObjectVersion
1070
     0
  0
VISUALSTYLE
  5
2E
102
{ACAD_REACTORS
330
2A
102
}
102
{ACAD_XDICTIONARY
360
693
102
}
330
2A
100
AcDbVisualStyle
  2
GouraudWithEdges
 70
     3
 71
     2
 72
     2
 73
     1
 90
        2
 40
-0.6
 41
30.0
 62
     5
 63
     7
 74
     1
 91
        4
 64
     7
 65
   257
 75
     1
175
     1
 42
1.0
 92
        0
 66
   257
 43
1.0
 76
     1
 77
     6
 78
     2
 67
     7
 79
     5
170
     0
171
     0
290
     0
174
     0
 93
       13
 44
0.0
173
     0
291
     1
 45
0.0
1001
ACAD
1000
AcDbSavedByObjectVersion
1070
     0
  0
VISUALSTYLE
  5
38
102
{ACAD_REACTORS
330
2A
102
}
102
{ACAD_XDICTIONARY
360
6A7
102
}
330
2A
100
AcDbVisualStyle
  2
Linepattern
 70
    14
 71
     2
 72
     2
 73
     0
 90
        0
 40
-0.6
 41
-30.0
 62
     5
 63
     7
 74
     1
 91
        4
 64
     7
 65
   257
 75
     7
175
     7
 42
1.0
 92
        8
 66
     7
 43
1.0
 76
     1
 77
     6
 78
     2
 67
     7
 79
     5
170
     0
171
     0
290
     0
174
     0
 93
        1
 44
0.0
173
     0
291
     1
 45
0.0
1001
ACAD
1000
AcDbSavedByObjectVersion
1070
     0
  0
VISUALSTYLE
  5
33
102
{ACAD_REACTORS
330
2A
102
}
102
{ACAD_XDICTIONARY
360
69D
102
}
330
2A
100
AcDbVisualStyle
  2
Realistic
 70
     8
 71
     2
 72
     2
 73
     0
 90
        0
 40
-0.6
 41
-30.0
 62
     5
 63
     7
 74
     1
 91
        0
 64
     7
 65
   257
 75
     1
175
     1
 42
1.0
 92
        8
 66
     8
 43
1.0
 76
     1
 77
     6
 78
     2
 67
     7
 79
     5
170
     0
171
     0
290
     0
174
     0
 93
       13
 44
0.0
173
     0
291
     0
 45
0.0
1001
ACAD
1000
AcDbSavedByObjectVersion
1070
     0
  0
VISUALSTYLE
  5
37
102
{ACAD_REACTORS
330
2A
102
}
102
{ACAD_XDICTIONARY
360
6A5
102
}
330
2A
100
AcDbVisualStyle
  2
Thicken
 70
    13
 71
     2
 72
     2
 73
     0
 90
        0
 40
-0.6
 41
-30.0
 62
     5
 63
     7
 74
     1
 91
        4
 64
     7
 65
   257
 75
     1
175
     1
 42
1.0
 92
       12
 66
     7
 43
1.0
 76
     1
 77
     6
 78
     2
 67
     7
 79
     5
170
     0
171
     0
290
     0
174
     0
 93
        1
 44
0.0
173
     0
291
     1
 45
0.0
1001
ACAD
1000
AcDbSavedByObjectVersion
1070
     0
  0
DICTIONARYVAR
  5
68B
102
{ACAD_REACTORS
330
686
102
}
330
686
100
DictionaryVariables
280
     0
  1
2
  0
DICTIONARYVAR
  5
68C
102
{ACAD_REACTORS
330
686
102
}
330
686
100
DictionaryVariables
280
     0
  1
1
  0
DICTIONARYVAR
  5
68A
102
{ACAD_REACTORS
330
686
102
}
330
686
100
DictionaryVariables
280
     0
  1
80.000000
  0
DICTIONARYVAR
  5
689
102
{ACAD_REACTORS
330
686
102
}
330
686
100
DictionaryVariables
280
     0
  1
5.000000
  0
DICTIONARY
  5
6AF
330
3D
100
AcDbDictionary
280
     1
281
     1
  3
ACAD_XREC_ROUNDTRIP
360
6B0
  0
DICTIONARY
  5
6AD
330
3C
100
AcDbDictionary
280
     1
281
     1
  3
ACAD_XREC_ROUNDTRIP
360
6AE
  0
DICTIONARY
  5
6B1
330
3E
100
AcDbDictionary
280
     1
281
     1
  3
ACAD_XREC_ROUNDTRIP
360
6B2
  0
DICTIONARY
  5
695
330
2F
100
AcDbDictionary
280
     1
281
     1
  3
ACAD_XREC_ROUNDTRIP
360
696
  0
DICTIONARY
  5
699
330
31
100
AcDbDictionary
280
     1
281
     1
  3
ACAD_XREC_ROUNDTRIP
360
69A
  0
DICTIONARY
  5
697
330
30
100
AcDbDictionary
280
     1
281
     1
  3
ACAD_XREC_ROUNDTRIP
360
698
  0
DICTIONARY
  5
69B
330
32
100
AcDbDictionary
280
     1
281
     1
  3
ACAD_XREC_ROUNDTRIP
360
69C
  0
DICTIONARY
  5
6A3
330
36
100
AcDbDictionary
280
     1
281
     1
  3
ACAD_XREC_ROUNDTRIP
360
6A4
  0
DICTIONARY
  5
6AB
330
3A
100
AcDbDictionary
280
     1
281
     1
  3
ACAD_XREC_ROUNDTRIP
360
6AC
  0
DICTIONARY
  5
69F
330
34
100
AcDbDictionary
280
     1
281
     1
  3
ACAD_XREC_ROUNDTRIP
360
6A0
  0
DICTIONARY
  5
6A1
330
35
100
AcDbDictionary
280
     1
281
     1
  3
ACAD_XREC_ROUNDTRIP
360
6A2
  0
DICTIONARY
  5
6A9
330
39
100
AcDbDictionary
280
     1
281
     1
  3
ACAD_XREC_ROUNDTRIP
360
6AA
  0
DICTIONARY
  5
68D
330
2B
100
AcDbDictionary
280
     1
281
     1
  3
ACAD_XREC_ROUNDTRIP
360
68E
  0
DICTIONARY
  5
68F
330
2C
100
AcDbDictionary
280
     1
281
     1
  3
ACAD_XREC_ROUNDTRIP
360
690
  0
DICTIONARY
  5
691
330
2D
100
AcDbDictionary
280
     1
281
     1
  3
ACAD_XREC_ROUNDTRIP
360
692
  0
DICTIONARY
  5
693
330
2E
100
AcDbDictionary
280
     1
281
     1
  3
ACAD_XREC_ROUNDTRIP
360
694
  0
DICTIONARY
  5
6A7
330
38
100
AcDbDictionary
280
     1
281
     1
  3
ACAD_XREC_ROUNDTRIP
360
6A8
  0
DICTIONARY
  5
69D
330
33
100
AcDbDictionary
280
     1
281
     1
  3
ACAD_XREC_ROUNDTRIP
360
69E
  0
DICTIONARY
  5
6A5
330
37
100
AcDbDictionary
280
     1
281
     1
  3
ACAD_XREC_ROUNDTRIP
360
6A6
  0
XRECORD
  5
6B0
102
{ACAD_REACTORS
330
6AF
102
}
330
6AF
100
AcDbXrecord
280
     1
102
MATERIAL
148
0.0
149
0.0
149
0.0
 93
        0
 94
      127
282
     0
 72
     1
 77
     1
171
     1
175
     1
179
     1
273
     0
  0
XRECORD
  5
6AE
102
{ACAD_REACTORS
330
6AD
102
}
330
6AD
100
AcDbXrecord
280
     1
102
MATERIAL
148
0.0
149
0.0
149
0.0
 93
        0
 94
      127
282
     0
 72
     1
 77
     1
171
     1
175
     1
179
     1
273
     0
  0
XRECORD
  5
6B2
102
{ACAD_REACTORS
330
6B1
102
}
330
6B1
100
AcDbXrecord
280
     1
102
MATERIAL
148
0.0
149
0.0
149
0.0
 93
        0
 94
      127
282
     0
 72
     1
 77
     1
171
     1
175
     1
179
     1
273
     0
  0
XRECORD
  5
696
102
{ACAD_REACTORS
330
695
102
}
330
695
100
AcDbXrecord
280
     1
102
RTVSPropertyOp0
 70
     1
102
RTVSPropertyOp1
 70
     1
102
RTVSPropertyOp2
 70
     1
102
RTVSPropertyOp3
 70
     1
102
RTVSPropertyOp4
 70
     1
102
RTVSPropertyOp5
 70
     1
102
RTVSPropertyOp6
 70
     1
102
RTVSPropertyOp7
 70
     1
102
RTVSPropertyOp8
 70
     1
102
RTVSPropertyOp9
 70
     1
102
RTVSPropertyOp10
 70
     1
102
RTVSPropertyOp11
 70
     1
102
RTVSPropertyOp12
 70
     1
102
RTVSPropertyOp13
 70
     1
102
RTVSPropertyOp14
 70
     1
102
RTVSPropertyOp15
 70
     1
102
RTVSPropertyOp16
 70
     1
102
RTVSPropertyOp17
 70
     1
102
RTVSPropertyOp18
 70
     1
102
RTVSPropertyOp19
 70
     1
102
RTVSPropertyOp20
 70
     1
102
RTVSPropertyOp21
 70
     1
102
RTVSPropertyOp22
 70
     1
102
RTVSPropertyOp23
 70
     1
102
RTVSPropertyOp24
 70
     1
102
RTVSPropertyOp25
 70
     1
102
RTVSPropertyOp26
 70
     1
102
RTVSPropertyOp27
 70
     1
  0
XRECORD
  5
69A
102
{ACAD_REACTORS
330
699
102
}
330
699
100
AcDbXrecord
280
     1
102
RTVSPropertyOp0
 70
     1
102
RTVSPropertyOp1
 70
     1
102
RTVSPropertyOp2
 70
     1
102
RTVSPropertyOp3
 70
     1
102
RTVSPropertyOp4
 70
     1
102
RTVSPropertyOp5
 70
     1
102
RTVSPropertyOp6
 70
     1
102
RTVSPropertyOp7
 70
     1
102
RTVSPropertyOp8
 70
     1
102
RTVSPropertyOp9
 70
     1
102
RTVSPropertyOp10
 70
     1
102
RTVSPropertyOp11
 70
     1
102
RTVSPropertyOp12
 70
     1
102
RTVSPropertyOp13
 70
     1
102
RTVSPropertyOp14
 70
     1
102
RTVSPropertyOp15
 70
     1
102
RTVSPropertyOp16
 70
     1
102
RTVSPropertyOp17
 70
     1
102
RTVSPropertyOp18
 70
     1
102
RTVSPropertyOp19
 70
     1
102
RTVSPropertyOp20
 70
     1
102
RTVSPropertyOp21
 70
     1
102
RTVSPropertyOp22
 70
     1
102
RTVSPropertyOp23
 70
     1
102
RTVSPropertyOp24
 70
     1
102
RTVSPropertyOp25
 70
     1
102
RTVSPropertyOp26
 70
     1
102
RTVSPropertyOp27
 70
     1
  0
XRECORD
  5
698
102
{ACAD_REACTORS
330
697
102
}
330
697
100
AcDbXrecord
280
     1
102
RTVSPropertyOp0
 70
     1
102
RTVSPropertyOp1
 70
     1
102
RTVSPropertyOp2
 70
     1
102
RTVSPropertyOp3
 70
     1
102
RTVSPropertyOp4
 70
     1
102
RTVSPropertyOp5
 70
     1
102
RTVSPropertyOp6
 70
     1
102
RTVSPropertyOp7
 70
     1
102
RTVSPropertyOp8
 70
     1
102
RTVSPropertyOp9
 70
     1
102
RTVSPropertyOp10
 70
     1
102
RTVSPropertyOp11
 70
     1
102
RTVSPropertyOp12
 70
     1
102
RTVSPropertyOp13
 70
     1
102
RTVSPropertyOp14
 70
     1
102
RTVSPropertyOp15
 70
     1
102
RTVSPropertyOp16
 70
     1
102
RTVSPropertyOp17
 70
     1
102
RTVSPropertyOp18
 70
     1
102
RTVSPropertyOp19
 70
     1
102
RTVSPropertyOp20
 70
     1
102
RTVSPropertyOp21
 70
     1
102
RTVSPropertyOp22
 70
     1
102
RTVSPropertyOp23
 70
     1
102
RTVSPropertyOp24
 70
     1
102
RTVSPropertyOp25
 70
     1
102
RTVSPropertyOp26
 70
     1
102
RTVSPropertyOp27
 70
     1
  0
XRECORD
  5
69C
102
{ACAD_REACTORS
330
69B
102
}
330
69B
100
AcDbXrecord
280
     1
102
RTVSPropertyOp0
 70
     1
102
RTVSPropertyOp1
 70
     1
102
RTVSPropertyOp2
 70
     1
102
RTVSPropertyOp3
 70
     1
102
RTVSPropertyOp4
 70
     1
102
RTVSPropertyOp5
 70
     1
102
RTVSPropertyOp6
 70
     1
102
RTVSPropertyOp7
 70
     1
102
RTVSPropertyOp8
 70
     1
102
RTVSPropertyOp9
 70
     1
102
RTVSPropertyOp10
 70
     1
102
RTVSPropertyOp11
 70
     1
102
RTVSPropertyOp12
 70
     1
102
RTVSPropertyOp13
 70
     1
102
RTVSPropertyOp14
 70
     1
102
RTVSPropertyOp15
 70
     1
102
RTVSPropertyOp16
 70
     1
102
RTVSPropertyOp17
 70
     1
102
RTVSPropertyOp18
 70
     1
102
RTVSPropertyOp19
 70
     1
102
RTVSPropertyOp20
 70
     1
102
RTVSPropertyOp21
 70
     1
102
RTVSPropertyOp22
 70
     1
102
RTVSPropertyOp23
 70
     1
102
RTVSPropertyOp24
 70
     1
102
RTVSPropertyOp25
 70
     1
102
RTVSPropertyOp26
 70
     1
102
RTVSPropertyOp27
 70
     1
  0
XRECORD
  5
6A4
102
{ACAD_REACTORS
330
6A3
102
}
330
6A3
100
AcDbXrecord
280
     1
102
RTVSPropertyOp0
 70
     1
102
RTVSPropertyOp1
 70
     1
102
RTVSPropertyOp2
 70
     1
102
RTVSPropertyOp3
 70
     1
102
RTVSPropertyOp4
 70
     1
102
RTVSPropertyOp5
 70
     1
102
RTVSPropertyOp6
 70
     1
102
RTVSPropertyOp7
 70
     1
102
RTVSPropertyOp8
 70
     1
102
RTVSPropertyOp9
 70
     1
102
RTVSPropertyOp10
 70
     1
102
RTVSPropertyOp11
 70
     1
102
RTVSPropertyOp12
 70
     1
102
RTVSPropertyOp13
 70
     1
102
RTVSPropertyOp14
 70
     1
102
RTVSPropertyOp15
 70
     1
102
RTVSPropertyOp16
 70
     1
102
RTVSPropertyOp17
 70
     1
102
RTVSPropertyOp18
 70
     1
102
RTVSPropertyOp19
 70
     1
102
RTVSPropertyOp20
 70
     1
102
RTVSPropertyOp21
 70
     1
102
RTVSPropertyOp22
 70
     1
102
RTVSPropertyOp23
 70
     1
102
RTVSPropertyOp24
 70
     1
102
RTVSPropertyOp25
 70
     1
102
RTVSPropertyOp26
 70
     1
102
RTVSPropertyOp27
 70
     1
  0
XRECORD
  5
6AC
102
{ACAD_REACTORS
330
6AB
102
}
330
6AB
100
AcDbXrecord
280
     1
102
RTVSPropertyOp0
 70
     1
102
RTVSPropertyOp1
 70
     1
102
RTVSPropertyOp2
 70
     1
102
RTVSPropertyOp3
 70
     1
102
RTVSPropertyOp4
 70
     1
102
RTVSPropertyOp5
 70
     1
102
RTVSPropertyOp6
 70
     1
102
RTVSPropertyOp7
 70
     1
102
RTVSPropertyOp8
 70
     1
102
RTVSPropertyOp9
 70
     1
102
RTVSPropertyOp10
 70
     1
102
RTVSPropertyOp11
 70
     1
102
RTVSPropertyOp12
 70
     1
102
RTVSPropertyOp13
 70
     1
102
RTVSPropertyOp14
 70
     1
102
RTVSPropertyOp15
 70
     1
102
RTVSPropertyOp16
 70
     1
102
RTVSPropertyOp17
 70
     1
102
RTVSPropertyOp18
 70
     1
102
RTVSPropertyOp19
 70
     1
102
RTVSPropertyOp20
 70
     1
102
RTVSPropertyOp21
 70
     1
102
RTVSPropertyOp22
 70
     1
102
RTVSPropertyOp23
 70
     1
102
RTVSPropertyOp24
 70
     1
102
RTVSPropertyOp25
 70
     1
102
RTVSPropertyOp26
 70
     1
102
RTVSPropertyOp27
 70
     1
  0
XRECORD
  5
6A0
102
{ACAD_REACTORS
330
69F
102
}
330
69F
100
AcDbXrecord
280
     1
102
RTVSPropertyOp0
 70
     1
102
RTVSPropertyOp1
 70
     1
102
RTVSPropertyOp2
 70
     1
102
RTVSPropertyOp3
 70
     1
102
RTVSPropertyOp4
 70
     1
102
RTVSPropertyOp5
 70
     1
102
RTVSPropertyOp6
 70
     1
102
RTVSPropertyOp7
 70
     1
102
RTVSPropertyOp8
 70
     1
102
RTVSPropertyOp9
 70
     1
102
RTVSPropertyOp10
 70
     1
102
RTVSPropertyOp11
 70
     1
102
RTVSPropertyOp12
 70
     1
102
RTVSPropertyOp13
 70
     1
102
RTVSPropertyOp14
 70
     1
102
RTVSPropertyOp15
 70
     1
102
RTVSPropertyOp16
 70
     1
102
RTVSPropertyOp17
 70
     1
102
RTVSPropertyOp18
 70
     1
102
RTVSPropertyOp19
 70
     1
102
RTVSPropertyOp20
 70
     1
102
RTVSPropertyOp21
 70
     1
102
RTVSPropertyOp22
 70
     1
102
RTVSPropertyOp23
 70
     1
102
RTVSPropertyOp24
 70
     1
102
RTVSPropertyOp25
 70
     1
102
RTVSPropertyOp26
 70
     1
102
RTVSPropertyOp27
 70
     1
  0
XRECORD
  5
6A2
102
{ACAD_REACTORS
330
6A1
102
}
330
6A1
100
AcDbXrecord
280
     1
102
RTVSPropertyOp0
 70
     1
102
RTVSPropertyOp1
 70
     1
102
RTVSPropertyOp2
 70
     1
102
RTVSPropertyOp3
 70
     1
102
RTVSPropertyOp4
 70
     1
102
RTVSPropertyOp5
 70
     1
102
RTVSPropertyOp6
 70
     1
102
RTVSPropertyOp7
 70
     1
102
RTVSPropertyOp8
 70
     1
102
RTVSPropertyOp9
 70
     1
102
RTVSPropertyOp10
 70
     1
102
RTVSPropertyOp11
 70
     1
102
RTVSPropertyOp12
 70
     1
102
RTVSPropertyOp13
 70
     1
102
RTVSPropertyOp14
 70
     1
102
RTVSPropertyOp15
 70
     1
102
RTVSPropertyOp16
 70
     1
102
RTVSPropertyOp17
 70
     1
102
RTVSPropertyOp18
 70
     1
102
RTVSPropertyOp19
 70
     1
102
RTVSPropertyOp20
 70
     1
102
RTVSPropertyOp21
 70
     1
102
RTVSPropertyOp22
 70
     1
102
RTVSPropertyOp23
 70
     1
102
RTVSPropertyOp24
 70
     1
102
RTVSPropertyOp25
 70
     1
102
RTVSPropertyOp26
 70
     1
102
RTVSPropertyOp27
 70
     1
  0
XRECORD
  5
6AA
102
{ACAD_REACTORS
330
6A9
102
}
330
6A9
100
AcDbXrecord
280
     1
102
RTVSPropertyOp0
 70
     1
102
RTVSPropertyOp1
 70
     1
102
RTVSPropertyOp2
 70
     1
102
RTVSPropertyOp3
 70
     1
102
RTVSPropertyOp4
 70
     1
102
RTVSPropertyOp5
 70
     1
102
RTVSPropertyOp6
 70
     1
102
RTVSPropertyOp7
 70
     1
102
RTVSPropertyOp8
 70
     1
102
RTVSPropertyOp9
 70
     1
102
RTVSPropertyOp10
 70
     1
102
RTVSPropertyOp11
 70
     1
102
RTVSPropertyOp12
 70
     1
102
RTVSPropertyOp13
 70
     1
102
RTVSPropertyOp14
 70
     1
102
RTVSPropertyOp15
 70
     1
102
RTVSPropertyOp16
 70
     1
102
RTVSPropertyOp17
 70
     1
102
RTVSPropertyOp18
 70
     1
102
RTVSPropertyOp19
 70
     1
102
RTVSPropertyOp20
 70
     1
102
RTVSPropertyOp21
 70
     1
102
RTVSPropertyOp22
 70
     1
102
RTVSPropertyOp23
 70
     1
102
RTVSPropertyOp24
 70
     1
102
RTVSPropertyOp25
 70
     1
102
RTVSPropertyOp26
 70
     1
102
RTVSPropertyOp27
 70
     1
  0
XRECORD
  5
68E
102
{ACAD_REACTORS
330
68D
102
}
330
68D
100
AcDbXrecord
280
     1
102
RTVSPropertyOp0
 70
     1
102
RTVSPropertyOp1
 70
     1
102
RTVSPropertyOp2
 70
     1
102
RTVSPropertyOp3
 70
     1
102
RTVSPropertyOp4
 70
     1
102
RTVSPropertyOp5
 70
     1
102
RTVSPropertyOp6
 70
     1
102
RTVSPropertyOp7
 70
     1
102
RTVSPropertyOp8
 70
     1
102
RTVSPropertyOp9
 70
     1
102
RTVSPropertyOp10
 70
     1
102
RTVSPropertyOp11
 70
     1
102
RTVSPropertyOp12
 70
     1
102
RTVSPropertyOp13
 70
     1
102
RTVSPropertyOp14
 70
     1
102
RTVSPropertyOp15
 70
     1
102
RTVSPropertyOp16
 70
     1
102
RTVSPropertyOp17
 70
     1
102
RTVSPropertyOp18
 70
     1
102
RTVSPropertyOp19
 70
     1
102
RTVSPropertyOp20
 70
     1
102
RTVSPropertyOp21
 70
     1
102
RTVSPropertyOp22
 70
     1
102
RTVSPropertyOp23
 70
     1
102
RTVSPropertyOp24
 70
     1
102
RTVSPropertyOp25
 70
     1
102
RTVSPropertyOp26
 70
     1
102
RTVSPropertyOp27
 70
     1
  0
XRECORD
  5
690
102
{ACAD_REACTORS
330
68F
102
}
330
68F
100
AcDbXrecord
280
     1
102
RTVSPropertyOp0
 70
     1
102
RTVSPropertyOp1
 70
     1
102
RTVSPropertyOp2
 70
     1
102
RTVSPropertyOp3
 70
     1
102
RTVSPropertyOp4
 70
     1
102
RTVSPropertyOp5
 70
     1
102
RTVSPropertyOp6
 70
     1
102
RTVSPropertyOp7
 70
     1
102
RTVSPropertyOp8
 70
     1
102
RTVSPropertyOp9
 70
     1
102
RTVSPropertyOp10
 70
     1
102
RTVSPropertyOp11
 70
     1
102
RTVSPropertyOp12
 70
     1
102
RTVSPropertyOp13
 70
     1
102
RTVSPropertyOp14
 70
     1
102
RTVSPropertyOp15
 70
     1
102
RTVSPropertyOp16
 70
     1
102
RTVSPropertyOp17
 70
     1
102
RTVSPropertyOp18
 70
     1
102
RTVSPropertyOp19
 70
     1
102
RTVSPropertyOp20
 70
     1
102
RTVSPropertyOp21
 70
     1
102
RTVSPropertyOp22
 70
     1
102
RTVSPropertyOp23
 70
     1
102
RTVSPropertyOp24
 70
     1
102
RTVSPropertyOp25
 70
     1
102
RTVSPropertyOp26
 70
     1
102
RTVSPropertyOp27
 70
     1
  0
XRECORD
  5
692
102
{ACAD_REACTORS
330
691
102
}
330
691
100
AcDbXrecord
280
     1
102
RTVSPropertyOp0
 70
     1
102
RTVSPropertyOp1
 70
     1
102
RTVSPropertyOp2
 70
     1
102
RTVSPropertyOp3
 70
     1
102
RTVSPropertyOp4
 70
     1
102
RTVSPropertyOp5
 70
     1
102
RTVSPropertyOp6
 70
     1
102
RTVSPropertyOp7
 70
     1
102
RTVSPropertyOp8
 70
     1
102
RTVSPropertyOp9
 70
     1
102
RTVSPropertyOp10
 70
     1
102
RTVSPropertyOp11
 70
     1
102
RTVSPropertyOp12
 70
     1
102
RTVSPropertyOp13
 70
     1
102
RTVSPropertyOp14
 70
     1
102
RTVSPropertyOp15
 70
     1
102
RTVSPropertyOp16
 70
     1
102
RTVSPropertyOp17
 70
     1
102
RTVSPropertyOp18
 70
     1
102
RTVSPropertyOp19
 70
     1
102
RTVSPropertyOp20
 70
     1
102
RTVSPropertyOp21
 70
     1
102
RTVSPropertyOp22
 70
     1
102
RTVSPropertyOp23
 70
     1
102
RTVSPropertyOp24
 70
     1
102
RTVSPropertyOp25
 70
     1
102
RTVSPropertyOp26
 70
     1
102
RTVSPropertyOp27
 70
     1
  0
XRECORD
  5
694
102
{ACAD_REACTORS
330
693
102
}
330
693
100
AcDbXrecord
280
     1
102
RTVSPropertyOp0
 70
     1
102
RTVSPropertyOp1
 70
     1
102
RTVSPropertyOp2
 70
     1
102
RTVSPropertyOp3
 70
     1
102
RTVSPropertyOp4
 70
     1
102
RTVSPropertyOp5
 70
     1
102
RTVSPropertyOp6
 70
     1
102
RTVSPropertyOp7
 70
     1
102
RTVSPropertyOp8
 70
     1
102
RTVSPropertyOp9
 70
     1
102
RTVSPropertyOp10
 70
     1
102
RTVSPropertyOp11
 70
     1
102
RTVSPropertyOp12
 70
     1
102
RTVSPropertyOp13
 70
     1
102
RTVSPropertyOp14
 70
     1
102
RTVSPropertyOp15
 70
     1
102
RTVSPropertyOp16
 70
     1
102
RTVSPropertyOp17
 70
     1
102
RTVSPropertyOp18
 70
     1
102
RTVSPropertyOp19
 70
     1
102
RTVSPropertyOp20
 70
     1
102
RTVSPropertyOp21
 70
     1
102
RTVSPropertyOp22
 70
     1
102
RTVSPropertyOp23
 70
     1
102
RTVSPropertyOp24
 70
     1
102
RTVSPropertyOp25
 70
     1
102
RTVSPropertyOp26
 70
     1
102
RTVSPropertyOp27
 70
     1
  0
XRECORD
  5
6A8
102
{ACAD_REACTORS
330
6A7
102
}
330
6A7
100
AcDbXrecord
280
     1
102
RTVSPropertyOp0
 70
     1
102
RTVSPropertyOp1
 70
     1
102
RTVSPropertyOp2
 70
     1
102
RTVSPropertyOp3
 70
     1
102
RTVSPropertyOp4
 70
     1
102
RTVSPropertyOp5
 70
     1
102
RTVSPropertyOp6
 70
     1
102
RTVSPropertyOp7
 70
     1
102
RTVSPropertyOp8
 70
     1
102
RTVSPropertyOp9
 70
     1
102
RTVSPropertyOp10
 70
     1
102
RTVSPropertyOp11
 70
     1
102
RTVSPropertyOp12
 70
     1
102
RTVSPropertyOp13
 70
     1
102
RTVSPropertyOp14
 70
     1
102
RTVSPropertyOp15
 70
     1
102
RTVSPropertyOp16
 70
     1
102
RTVSPropertyOp17
 70
     1
102
RTVSPropertyOp18
 70
     1
102
RTVSPropertyOp19
 70
     1
102
RTVSPropertyOp20
 70
     1
102
RTVSPropertyOp21
 70
     1
102
RTVSPropertyOp22
 70
     1
102
RTVSPropertyOp23
 70
     1
102
RTVSPropertyOp24
 70
     1
102
RTVSPropertyOp25
 70
     1
102
RTVSPropertyOp26
 70
     1
102
RTVSPropertyOp27
 70
     1
  0
XRECORD
  5
69E
102
{ACAD_REACTORS
330
69D
102
}
330
69D
100
AcDbXrecord
280
     1
102
RTVSPropertyOp0
 70
     1
102
RTVSPropertyOp1
 70
     1
102
RTVSPropertyOp2
 70
     1
102
RTVSPropertyOp3
 70
     1
102
RTVSPropertyOp4
 70
     1
102
RTVSPropertyOp5
 70
     1
102
RTVSPropertyOp6
 70
     1
102
RTVSPropertyOp7
 70
     1
102
RTVSPropertyOp8
 70
     1
102
RTVSPropertyOp9
 70
     1
102
RTVSPropertyOp10
 70
     1
102
RTVSPropertyOp11
 70
     1
102
RTVSPropertyOp12
 70
     1
102
RTVSPropertyOp13
 70
     1
102
RTVSPropertyOp14
 70
     1
102
RTVSPropertyOp15
 70
     1
102
RTVSPropertyOp16
 70
     1
102
RTVSPropertyOp17
 70
     1
102
RTVSPropertyOp18
 70
     1
102
RTVSPropertyOp19
 70
     1
102
RTVSPropertyOp20
 70
     1
102
RTVSPropertyOp21
 70
     1
102
RTVSPropertyOp22
 70
     1
102
RTVSPropertyOp23
 70
     1
102
RTVSPropertyOp24
 70
     1
102
RTVSPropertyOp25
 70
     1
102
RTVSPropertyOp26
 70
     1
102
RTVSPropertyOp27
 70
     1
  0
XRECORD
  5
6A6
102
{ACAD_REACTORS
330
6A5
102
}
330
6A5
100
AcDbXrecord
280
     1
102
RTVSPropertyOp0
 70
     1
102
RTVSPropertyOp1
 70
     1
102
RTVSPropertyOp2
 70
     1
102
RTVSPropertyOp3
 70
     1
102
RTVSPropertyOp4
 70
     1
102
RTVSPropertyOp5
 70
     1
102
RTVSPropertyOp6
 70
     1
102
RTVSPropertyOp7
 70
     1
102
RTVSPropertyOp8
 70
     1
102
RTVSPropertyOp9
 70
     1
102
RTVSPropertyOp10
 70
     1
102
RTVSPropertyOp11
 70
     1
102
RTVSPropertyOp12
 70
     1
102
RTVSPropertyOp13
 70
     1
102
RTVSPropertyOp14
 70
     1
102
RTVSPropertyOp15
 70
     1
102
RTVSPropertyOp16
 70
     1
102
RTVSPropertyOp17
 70
     1
102
RTVSPropertyOp18
 70
     1
102
RTVSPropertyOp19
 70
     1
102
RTVSPropertyOp20
 70
     1
102
RTVSPropertyOp21
 70
     1
102
RTVSPropertyOp22
 70
     1
102
RTVSPropertyOp23
 70
     1
102
RTVSPropertyOp24
 70
     1
102
RTVSPropertyOp25
 70
     1
102
RTVSPropertyOp26
 70
     1
102
RTVSPropertyOp27
 70
     1
  0
ENDSEC
  0
EOF
