  0
SECTION
  2
HEADER
  9
$ACADVER
  1
AC1015
  9
$ACADMAINTVER
 70
     6
  9
$DWGCODEPAGE
  3
ANSI_1252
  9
$INSBASE
 10
0.0
 20
0.0
 30
0.0
  9
$EXTMIN
 10
0.0
 20
0.0
 30
0.0
  9
$EXTMAX
 10
297.0
 20
210.0
 30
0.0
  9
$LIMMIN
 10
0.0
 20
0.0
  9
$LIMMAX
 10
297.0
 20
210.0
  9
$ORTHOMODE
 70
     0
  9
$REGENMODE
 70
     1
  9
$FILLMODE
 70
     1
  9
$QTEXTMODE
 70
     0
  9
$MIRRTEXT
 70
     1
  9
$LTSCALE
 40
1.0
  9
$ATTMODE
 70
     1
  9
$TEXTSIZE
 40
2.5
  9
$TRACEWID
 40
1.0
  9
$TEXTSTYLE
  7
Standard
  9
$CLAYER
  8
0
  9
$CELTYPE
  6
ByLayer
  9
$CECOLOR
 62
   256
  9
$CELTSCALE
 40
1.0
  9
$DISPSILH
 70
     0
  9
$DIMSCALE
 40
1.0
  9
$DIMASZ
 40
2.5
  9
$DIMEXO
 40
0.625
  9
$DIMDLI
 40
3.75
  9
$DIMRND
 40
0.0
  9
$DIMDLE
 40
0.0
  9
$DIMEXE
 40
1.25
  9
$DIMTP
 40
0.0
  9
$DIMTM
 40
0.0
  9
$DIMTXT
 40
2.5
  9
$DIMCEN
 40
2.5
  9
$DIMTSZ
 40
0.0
  9
$DIMTOL
 70
     0
  9
$DIMLIM
 70
     0
  9
$DIMTIH
 70
     0
  9
$DIMTOH
 70
     0
  9
$DIMSE1
 70
     0
  9
$DIMSE2
 70
     0
  9
$DIMTAD
 70
     1
  9
$DIMZIN
 70
     8
  9
$DIMBLK
  1

  9
$DIMASO
 70
     1
  9
$DIMSHO
 70
     1
  9
$DIMPOST
  1

  9
$DIMAPOST
  1

  9
$DIMALT
 70
     0
  9
$DIMALTD
 70
     3
  9
$DIMALTF
 40
0.0393700787
  9
$DIMLFAC
 40
1.0
  9
$DIMTOFL
 70
     1
  9
$DIMTVP
 40
0.0
  9
$DIMTIX
 70
     0
  9
$DIMSOXD
 70
     0
  9
$DIMSAH
 70
     0
  9
$DIMBLK1
  1

  9
$DIMBLK2
  1

  9
$DIMSTYLE
  2
ISO-25
  9
$DIMCLRD
 70
     0
  9
$DIMCLRE
 70
     0
  9
$DIMCLRT
 70
     0
  9
$DIMTFAC
 40
1.0
  9
$DIMGAP
 40
0.625
  9
$DIMJUST
 70
     0
  9
$DIMSD1
 70
     0
  9
$DIMSD2
 70
     0
  9
$DIMTOLJ
 70
     0
  9
$DIMTZIN
 70
     8
  9
$DIMALTZ
 70
     0
  9
$DIMALTTZ
 70
     0
  9
$DIMUPT
 70
     0
  9
$DIMDEC
 70
     2
  9
$DIMTDEC
 70
     2
  9
$DIMALTU
 70
     2
  9
$DIMALTTD
 70
     3
  9
$DIMTXSTY
  7
Standard
  9
$DIMAUNIT
 70
     0
  9
$DIMADEC
 70
     0
  9
$DIMALTRND
 40
0.0
  9
$DIMAZIN
 70
     0
  9
$DIMDSEP
 70
    44
  9
$DIMATFIT
 70
     3
  9
$DIMFRAC
 70
     0
  9
$DIMLDRBLK
  1

  9
$DIMLUNIT
 70
     2
  9
$DIMLWD
 70
    -2
  9
$DIMLWE
 70
    -2
  9
$DIMTMOVE
 70
     0
  9
$LUNITS
 70
     2
  9
$LUPREC
 70
     4
  9
$SKETCHINC
 40
1.0
  9
$FILLETRAD
 40
10.0
  9
$AUNITS
 70
     0
  9
$AUPREC
 70
     0
  9
$MENU
  1
.
  9
$ELEVATION
 40
0.0
  9
$PELEVATION
 40
0.0
  9
$THICKNESS
 40
0.0
  9
$LIMCHECK
 70
     0
  9
$CHAMFERA
 40
10.0
  9
$CHAMFERB
 40
10.0
  9
$CHAMFERC
 40
20.0
  9
$CHAMFERD
 40
0.0
  9
$SKPOLY
 70
     0
  9
$TDCREATE
 40
2456468.445293171
  9
$TDUCREATE
 40
2456468.403626505
  9
$TDUPDATE
 40
2456468.445293183
  9
$TDUUPDATE
 40
2456468.403626516
  9
$TDINDWG
 40
0.0000000116
  9
$TDUSRTIMER
 40
0.0000000116
  9
$USRTIMER
 70
     1
  9
$ANGBASE
 50
0.0
  9
$ANGDIR
 70
     0
  9
$PDMODE
 70
     0
  9
$PDSIZE
 40
0.0
  9
$PLINEWID
 40
0.0
  9
$SPLFRAME
 70
     0
  9
$SPLINETYPE
 70
     6
  9
$SPLINESEGS
 70
     8
  9
$HANDSEED
  5
5FA
  9
$SURFTAB1
 70
     6
  9
$SURFTAB2
 70
     6
  9
$SURFTYPE
 70
     6
  9
$SURFU
 70
     6
  9
$SURFV
 70
     6
  9
$UCSBASE
  2

  9
$UCSNAME
  2

  9
$UCSORG
 10
0.0
 20
0.0
 30
0.0
  9
$UCSXDIR
 10
1.0
 20
0.0
 30
0.0
  9
$UCSYDIR
 10
0.0
 20
1.0
 30
0.0
  9
$UCSORTHOREF
  2

  9
$UCSORTHOVIEW
 70
     0
  9
$UCSORGTOP
 10
0.0
 20
0.0
 30
0.0
  9
$UCSORGBOTTOM
 10
0.0
 20
0.0
 30
0.0
  9
$UCSORGLEFT
 10
0.0
 20
0.0
 30
0.0
  9
$UCSORGRIGHT
 10
0.0
 20
0.0
 30
0.0
  9
$UCSORGFRONT
 10
0.0
 20
0.0
 30
0.0
  9
$UCSORGBACK
 10
0.0
 20
0.0
 30
0.0
  9
$PUCSBASE
  2

  9
$PUCSNAME
  2

  9
$PUCSORG
 10
0.0
 20
0.0
 30
0.0
  9
$PUCSXDIR
 10
1.0
 20
0.0
 30
0.0
  9
$PUCSYDIR
 10
0.0
 20
1.0
 30
0.0
  9
$PUCSORTHOREF
  2

  9
$PUCSORTHOVIEW
 70
     0
  9
$PUCSORGTOP
 10
0.0
 20
0.0
 30
0.0
  9
$PUCSORGBOTTOM
 10
0.0
 20
0.0
 30
0.0
  9
$PUCSORGLEFT
 10
0.0
 20
0.0
 30
0.0
  9
$PUCSORGRIGHT
 10
0.0
 20
0.0
 30
0.0
  9
$PUCSORGFRONT
 10
0.0
 20
0.0
 30
0.0
  9
$PUCSORGBACK
 10
0.0
 20
0.0
 30
0.0
  9
$USERI1
 70
     0
  9
$USERI2
 70
     0
  9
$USERI3
 70
     0
  9
$USERI4
 70
     0
  9
$USERI5
 70
     0
  9
$USERR1
 40
0.0
  9
$USERR2
 40
0.0
  9
$USERR3
 40
0.0
  9
$USERR4
 40
0.0
  9
$USERR5
 40
0.0
  9
$WORLDVIEW
 70
     1
  9
$SHADEDGE
 70
     3
  9
$SHADEDIF
 70
    70
  9
$TILEMODE
 70
     1
  9
$MAXACTVP
 70
    64
  9
$PINSBASE
 10
0.0
 20
0.0
 30
0.0
  9
$PLIMCHECK
 70
     0
  9
$PEXTMIN
 10
0.0
 20
0.0
 30
0.0
  9
$PEXTMAX
 10
297.0
 20
210.0
 30
0.0
  9
$PLIMMIN
 10
0.0
 20
0.0
  9
$PLIMMAX
 10
297.0
 20
210.0
  9
$UNITMODE
 70
     0
  9
$VISRETAIN
 70
     1
  9
$PLINEGEN
 70
     0
  9
$PSLTSCALE
 70
     1
  9
$TREEDEPTH
 70
  3020
  9
$CMLSTYLE
  2
Standard
  9
$CMLJUST
 70
     0
  9
$CMLSCALE
 40
20.0
  9
$PROXYGRAPHICS
 70
     1
  9
$MEASUREMENT
 70
     1
  9
$CELWEIGHT
370
    -1
  9
$ENDCAPS
280
     0
  9
$JOINSTYLE
280
     0
  9
$LWDISPLAY
290
     0
  9
$INSUNITS
 70
     4
  9
$HYPERLINKBASE
  1

  9
$STYLESHEET
  1

  9
$XEDIT
290
     1
  9
$CEPSNTYPE
380
     0
  9
$PSTYLEMODE
290
     1
  9
$FINGERPRINTGUID
  2
{3BBCBBB9-769C-40BA-B3D1-6DFC139C27EC}
  9
$VERSIONGUID
  2
{FAEB1C32-E019-11D5-929B-00C0DF256EC4}
  9
$EXTNAMES
290
     1
  9
$PSVPSCALE
 40
0.0
  9
$OLESTARTUP
290
     0
  0
ENDSEC
  0
SECTION
  2
CLASSES
  0
CLASS
  1
ACDBDICTIONARYWDFLT
  2
AcDbDictionaryWithDefault
  3
ObjectDBX Classes
 90
        0
280
     0
281
     0
  0
CLASS
  1
VISUALSTYLE
  2
AcDbVisualStyle
  3
ObjectDBX Classes
 90
     4095
280
     0
281
     0
  0
CLASS
  1
MATERIAL
  2
AcDbMaterial
  3
ObjectDBX Classes
 90
     1153
280
     0
281
     0
  0
CLASS
  1
DICTIONARYVAR
  2
AcDbDictionaryVar
  3
ObjectDBX Classes
 90
        0
280
     0
281
     0
  0
CLASS
  1
ACDBPLACEHOLDER
  2
AcDbPlaceHolder
  3
ObjectDBX Classes
 90
        0
280
     0
281
     0
  0
CLASS
  1
LAYOUT
  2
AcDbLayout
  3
ObjectDBX Classes
 90
        0
280
     0
281
     0
  0
ENDSEC
  0
SECTION
  2
TABLES
  0
TABLE
  2
VPORT
  5
8
330
0
100
AcDbSymbolTable
 70
     1
  0
VPORT
  5
29
330
8
100
AcDbSymbolTableRecord
100
AcDbViewportTableRecord
  2
*Active
 70
     0
 10
0.0
 20
0.0
 11
1.0
 21
1.0
 12
344.1869158879
 22
148.5
 13
0.0
 23
0.0
 14
10.0
 24
10.0
 15
10.0
 25
10.0
 16
0.0
 26
0.0
 36
1.0
 17
0.0
 27
0.0
 37
0.0
 40
297.0
 41
1.9729729729
 42
50.0
 43
0.0
 44
0.0
 50
0.0
 51
0.0
 71
     0
 72
   100
 73
     1
 74
     3
 75
     0
 76
     0
 77
     0
 78
     0
281
     0
 65
     1
110
0.0
120
0.0
130
0.0
111
1.0
121
0.0
131
0.0
112
0.0
122
1.0
132
0.0
 79
     0
146
0.0
  0
ENDTAB
  0
TABLE
  2
LTYPE
  5
5
330
0
100
AcDbSymbolTable
 70
     1
  0
LTYPE
  5
14
330
5
100
AcDbSymbolTableRecord
100
AcDbLinetypeTableRecord
  2
ByBlock
 70
     0
  3

 72
    65
 73
     0
 40
0.0
  0
LTYPE
  5
15
330
5
100
AcDbSymbolTableRecord
100
AcDbLinetypeTableRecord
  2
ByLayer
 70
     0
  3

 72
    65
 73
     0
 40
0.0
  0
LTYPE
  5
16
330
5
100
AcDbSymbolTableRecord
100
AcDbLinetypeTableRecord
  2
Continuous
 70
     0
  3
Solid line
 72
    65
 73
     0
 40
0.0
  0
ENDTAB
  0
TABLE
  2
LAYER
  5
2
330
0
100
AcDbSymbolTable
 70
    11
  0
LAYER
  5
10
330
2
100
AcDbSymbolTableRecord
100
AcDbLayerTableRecord
  2
0
 70
     0
 62
     7
  6
Continuous
370
    -3
390
F
  0
LAYER
  5
41
330
2
100
AcDbSymbolTableRecord
100
AcDbLayerTableRecord
  2
Default
 70
     0
 62
     7
  6
Continuous
370
    -3
390
F
  0
LAYER
  5
44
330
2
100
AcDbSymbolTableRecord
100
AcDbLayerTableRecord
  2
6021520
 70
     0
 62
     7
  6
Continuous
370
    -3
390
F
  0
LAYER
  5
6D
330
2
100
AcDbSymbolTableRecord
100
AcDbLayerTableRecord
  2
6601630
 70
     0
 62
     7
  6
Continuous
370
    -3
390
F
  0
LAYER
  5
7C
330
2
100
AcDbSymbolTableRecord
100
AcDbLayerTableRecord
  2
6601635
 70
     0
 62
     7
  6
Continuous
370
    -3
390
F
  0
LAYER
  5
8B
330
2
100
AcDbSymbolTableRecord
100
AcDbLayerTableRecord
  2
6301665
 70
     0
 62
     7
  6
Continuous
370
    -3
390
F
  0
LAYER
  5
8E
330
2
100
AcDbSymbolTableRecord
100
AcDbLayerTableRecord
  2
6802420
 70
     0
 62
     7
  6
Continuous
370
    -3
390
F
  0
LAYER
  5
91
330
2
100
AcDbSymbolTableRecord
100
AcDbLayerTableRecord
  2
1M_PHV_T_LOOSE_G
 70
     0
 62
     7
  6
Continuous
370
    -3
390
F
  0
LAYER
  5
100
330
2
100
AcDbSymbolTableRecord
100
AcDbLayerTableRecord
  2
ECOPOWERBOARD
 70
     0
 62
     7
  6
Continuous
370
    -3
390
F
  0
LAYER
  5
10D
330
2
100
AcDbSymbolTableRecord
100
AcDbLayerTableRecord
  2
1M_T_R_LOOSE_GRI
 70
     0
 62
     7
  6
Continuous
370
    -3
390
F
  0
LAYER
  5
281
330
2
100
AcDbSymbolTableRecord
100
AcDbLayerTableRecord
  2
T_R_LOOSE_GRILLE
 70
     0
 62
     7
  6
Continuous
370
    -3
390
F
  0
ENDTAB
  0
TABLE
  2
STYLE
  5
3
330
0
100
AcDbSymbolTable
 70
     2
  0
STYLE
  5
11
330
3
100
AcDbSymbolTableRecord
100
AcDbTextStyleTableRecord
  2
Standard
 70
     0
 40
0.0
 41
1.0
 50
0.0
 71
     0
 42
2.5
  3
txt
  4

  0
STYLE
  5
3F
330
3
100
AcDbSymbolTableRecord
100
AcDbTextStyleTableRecord
  2
SEACAD_arial_ttfB
 70
     0
 40
0.0
 41
1.0
 50
0.0
 71
     0
 42
0.2
  3

  4

1001
ACAD
1000
arial.ttf
1071
 33554432
  0
ENDTAB
  0
TABLE
  2
VIEW
  5
6
330
0
100
AcDbSymbolTable
 70
     0
  0
ENDTAB
  0
TABLE
  2
UCS
  5
7
330
0
100
AcDbSymbolTable
 70
     0
  0
ENDTAB
  0
TABLE
  2
APPID
  5
9
330
0
100
AcDbSymbolTable
 70
     1
  0
APPID
  5
12
330
9
100
AcDbSymbolTableRecord
100
AcDbRegAppTableRecord
  2
ACAD
 70
     0
  0
ENDTAB
  0
TABLE
  2
DIMSTYLE
  5
A
330
0
100
AcDbSymbolTable
 70
     1
100
AcDbDimStyleTable
  0
DIMSTYLE
105
27
330
A
100
AcDbSymbolTableRecord
100
AcDbDimStyleTableRecord
  2
ISO-25
 70
     0
 41
2.5
 42
0.625
 43
3.75
 44
1.25
 73
     0
 74
     0
 77
     1
 78
     8
140
2.5
141
2.5
143
0.0393700787
147
0.625
171
     3
172
     1
178
     0
271
     2
272
     2
274
     3
278
    44
283
     0
284
     8
340
11
  0
ENDTAB
  0
TABLE
  2
BLOCK_RECORD
  5
1
330
0
100
AcDbSymbolTable
 70
     7
  0
BLOCK_RECORD
  5
1F
330
1
100
AcDbSymbolTableRecord
100
AcDbBlockTableRecord
  2
*Model_Space
340
22
  0
BLOCK_RECORD
  5
1B
330
1
100
AcDbSymbolTableRecord
100
AcDbBlockTableRecord
  2
*Paper_Space
340
1E
  0
BLOCK_RECORD
  5
42
330
1
100
AcDbSymbolTableRecord
100
AcDbBlockTableRecord
  2
SE
340
0
102
{BLKREFS
331
43
102
}
  0
BLOCK_RECORD
  5
9D
330
1
100
AcDbSymbolTableRecord
100
AcDbBlockTableRecord
  2
SE1
340
0
102
{BLKREFS
331
9E
102
}
  0
BLOCK_RECORD
  5
111
330
1
100
AcDbSymbolTableRecord
100
AcDbBlockTableRecord
  2
SE2
340
0
102
{BLKREFS
331
112
102
}
  0
BLOCK_RECORD
  5
184
330
1
100
AcDbSymbolTableRecord
100
AcDbBlockTableRecord
  2
SE3
340
0
102
{BLKREFS
331
185
102
}
  0
BLOCK_RECORD
  5
342
330
1
100
AcDbSymbolTableRecord
100
AcDbBlockTableRecord
  2
SE4
340
0
102
{BLKREFS
331
343
102
}
  0
BLOCK_RECORD
  5
502
330
1
100
AcDbSymbolTableRecord
100
AcDbBlockTableRecord
  2
SE5
340
0
102
{BLKREFS
331
503
102
}
  0
ENDTAB
  0
ENDSEC
  0
SECTION
  2
BLOCKS
  0
BLOCK
  5
20
330
1F
100
AcDbEntity
  8
0
100
AcDbBlockBegin
  2
*Model_Space
 70
     0
 10
0.0
 20
0.0
 30
0.0
  3
*Model_Space
  1

  0
ENDBLK
  5
21
330
1F
100
AcDbEntity
  8
0
100
AcDbBlockEnd
  0
BLOCK
  5
1C
330
1B
100
AcDbEntity
 67
     1
  8
0
100
AcDbBlockBegin
  2
*Paper_Space
 70
     0
 10
0.0
 20
0.0
 30
0.0
  3
*Paper_Space
  1

  0
ENDBLK
  5
1D
330
1B
100
AcDbEntity
 67
     1
  8
0
100
AcDbBlockEnd
  0
BLOCK
  5
9B
330
42
100
AcDbEntity
  8
0
100
AcDbBlockBegin
  2
SE
 70
     0
 10
0.0
 20
0.0
 30
0.0
  3
SE
  1

  0
LINE
  5
45
330
42
100
AcDbEntity
  8
6021520
  6
Continuous
 62
     7
100
AcDbLine
 10
110.9179094684
 20
136.4630766198
 30
0.0
 11
168.1679094684
 21
136.4630766198
 31
0.0
  0
LINE
  5
46
330
42
100
AcDbEntity
  8
6021520
  6
Continuous
 62
     7
100
AcDbLine
 10
116.6057676898
 20
122.8515766198
 30
0.0
 11
117.605051247
 21
122.8515766198
 31
0.0
  0
LINE
  5
47
330
42
100
AcDbEntity
  8
6021520
  6
Continuous
 62
     7
100
AcDbLine
 10
161.4807676898
 20
122.8515766198
 30
0.0
 11
162.480051247
 21
122.8515766198
 31
0.0
  0
LINE
  5
48
330
42
100
AcDbEntity
  8
6021520
  6
Continuous
 62
     7
100
AcDbLine
 10
116.6066286803
 20
122.8970766198
 30
0.0
 11
117.6041902566
 21
122.8970766198
 31
0.0
  0
LINE
  5
49
330
42
100
AcDbEntity
  8
6021520
  6
Continuous
 62
     7
100
AcDbLine
 10
161.4816286803
 20
122.8970766198
 30
0.0
 11
162.4791902566
 21
122.8970766198
 31
0.0
  0
LINE
  5
4A
330
42
100
AcDbEntity
  8
6021520
  6
Continuous
 62
     7
100
AcDbLine
 10
168.1679094684
 20
136.4630766198
 30
0.0
 11
168.1679094684
 21
136.3720766198
 31
0.0
  0
LINE
  5
4B
330
42
100
AcDbEntity
  8
6021520
  6
Continuous
 62
     7
100
AcDbLine
 10
168.1679094684
 20
121.7880766198
 30
0.0
 11
168.1679094684
 21
121.6970766198
 31
0.0
  0
LINE
  5
4C
330
42
100
AcDbEntity
  8
6021520
  6
Continuous
 62
     7
100
AcDbLine
 10
110.9179094684
 20
121.6970766198
 30
0.0
 11
110.9179094684
 21
121.7880766198
 31
0.0
  0
LINE
  5
4D
330
42
100
AcDbEntity
  8
6021520
  6
Continuous
 62
     7
100
AcDbLine
 10
110.9179094684
 20
136.3720766198
 30
0.0
 11
110.9179094684
 21
136.4630766198
 31
0.0
  0
LINE
  5
4E
330
42
100
AcDbEntity
  8
6021520
  6
Continuous
 62
     7
100
AcDbLine
 10
168.1679094684
 20
121.6970766198
 30
0.0
 11
110.9179094684
 21
121.6970766198
 31
0.0
  0
LINE
  5
4F
330
42
100
AcDbEntity
  8
6021520
  6
Continuous
 62
     7
100
AcDbLine
 10
168.1679094684
 20
121.7880766198
 30
0.0
 11
168.1679094684
 21
136.3720766198
 31
0.0
  0
LINE
  5
50
330
42
100
AcDbEntity
  8
6021520
  6
Continuous
 62
     7
100
AcDbLine
 10
110.9179094684
 20
136.3720766198
 30
0.0
 11
110.9179094684
 21
121.7880766198
 31
0.0
  0
CIRCLE
  5
51
330
42
100
AcDbEntity
  8
6021520
  6
Continuous
 62
     7
100
AcDbCircle
 10
167.7679094684
 20
129.0675766198
 30
0.0
 40
0.1625
  0
CIRCLE
  5
52
330
42
100
AcDbEntity
  8
6021520
  6
Continuous
 62
     7
100
AcDbCircle
 10
167.7679094684
 20
135.1675766198
 30
0.0
 40
0.1625
  0
CIRCLE
  5
53
330
42
100
AcDbEntity
  8
6021520
  6
Continuous
 62
     7
100
AcDbCircle
 10
111.3179094684
 20
122.9675766198
 30
0.0
 40
0.1625
  0
CIRCLE
  5
54
330
42
100
AcDbEntity
  8
6021520
  6
Continuous
 62
     7
100
AcDbCircle
 10
111.3179094684
 20
129.0675766198
 30
0.0
 40
0.1625
  0
CIRCLE
  5
55
330
42
100
AcDbEntity
  8
6021520
  6
Continuous
 62
     7
100
AcDbCircle
 10
111.3179094684
 20
135.1675766198
 30
0.0
 40
0.1625
  0
CIRCLE
  5
56
330
42
100
AcDbEntity
  8
6021520
  6
Continuous
 62
     7
100
AcDbCircle
 10
167.7679094684
 20
122.9675766198
 30
0.0
 40
0.1625
  0
LINE
  5
57
330
42
100
AcDbEntity
  8
6021520
  6
Continuous
 62
     7
100
AcDbLine
 10
114.7081594684
 20
121.6510766198
 30
0.0
 11
115.9776594684
 21
121.6510766198
 31
0.0
  0
LINE
  5
58
330
42
100
AcDbEntity
  8
6021520
  6
Continuous
 62
     7
100
AcDbLine
 10
117.2081594684
 20
121.6510766198
 30
0.0
 11
118.4776594684
 21
121.6510766198
 31
0.0
  0
CIRCLE
  5
59
330
42
100
AcDbEntity
  8
6021520
  6
Continuous
 62
     7
100
AcDbCircle
 10
164.7984094684
 20
129.7425766198
 30
0.0
 40
0.2400000000000014
  0
CIRCLE
  5
5A
330
42
100
AcDbEntity
  8
6021520
  6
Continuous
 62
     7
100
AcDbCircle
 10
114.2874094684
 20
129.7425766198
 30
0.0
 40
0.2400000000000014
  0
ARC
  5
5B
330
42
100
AcDbEntity
  8
6021520
  6
Continuous
 62
     7
100
AcDbCircle
 10
161.8379094684
 20
122.8675766198
 30
0.0
 40
0.3575000000000009
100
AcDbArc
 50
90.0
 51
270.0
  0
LINE
  5
5C
330
42
100
AcDbEntity
  8
6021520
  6
Continuous
 62
     7
100
AcDbLine
 10
161.8379094684
 20
122.5100766198
 30
0.0
 11
162.1229094684
 21
122.5100766198
 31
0.0
  0
ARC
  5
5D
330
42
100
AcDbEntity
  8
6021520
  6
Continuous
 62
     7
100
AcDbCircle
 10
162.1229094684
 20
122.8675766198
 30
0.0
 40
0.3575000000000002
100
AcDbArc
 50
270.0
 51
90.0
  0
LINE
  5
5E
330
42
100
AcDbEntity
  8
6021520
  6
Continuous
 62
     7
100
AcDbLine
 10
162.1229094684
 20
123.2250766198
 30
0.0
 11
161.8379094684
 21
123.2250766198
 31
0.0
  0
CIRCLE
  5
5F
330
42
100
AcDbEntity
  8
6021520
  6
Continuous
 62
     7
100
AcDbCircle
 10
117.0429094684
 20
133.8675766198
 30
0.0
 40
0.3575
  0
CIRCLE
  5
60
330
42
100
AcDbEntity
  8
6021520
  6
Continuous
 62
     7
100
AcDbCircle
 10
162.0429094684
 20
133.8675766198
 30
0.0
 40
0.3575
  0
ARC
  5
61
330
42
100
AcDbEntity
  8
6021520
  6
Continuous
 62
     7
100
AcDbCircle
 10
116.9629094684
 20
122.8675766198
 30
0.0
 40
0.3575000000000009
100
AcDbArc
 50
90.0
 51
270.0
  0
LINE
  5
62
330
42
100
AcDbEntity
  8
6021520
  6
Continuous
 62
     7
100
AcDbLine
 10
116.9629094684
 20
122.5100766198
 30
0.0
 11
117.2479094684
 21
122.5100766198
 31
0.0
  0
ARC
  5
63
330
42
100
AcDbEntity
  8
6021520
  6
Continuous
 62
     7
100
AcDbCircle
 10
117.2479094684
 20
122.8675766198
 30
0.0
 40
0.3574999999999988
100
AcDbArc
 50
270.0
 51
90.0
  0
LINE
  5
64
330
42
100
AcDbEntity
  8
6021520
  6
Continuous
 62
     7
100
AcDbLine
 10
117.2479094684
 20
123.2250766198
 30
0.0
 11
116.9629094684
 21
123.2250766198
 31
0.0
  0
CIRCLE
  5
65
330
42
100
AcDbEntity
  8
6021520
  6
Continuous
 62
     7
100
AcDbCircle
 10
167.0179094684
 20
134.0470766198
 30
0.0
 40
0.3249999999999976
  0
CIRCLE
  5
66
330
42
100
AcDbEntity
  8
6021520
  6
Continuous
 62
     7
100
AcDbCircle
 10
112.0679094684
 20
122.9970766198
 30
0.0
 40
0.325
  0
CIRCLE
  5
67
330
42
100
AcDbEntity
  8
6021520
  6
Continuous
 62
     7
100
AcDbCircle
 10
112.0679094684
 20
134.0470766198
 30
0.0
 40
0.3250000000000001
  0
CIRCLE
  5
68
330
42
100
AcDbEntity
  8
6021520
  6
Continuous
 62
     7
100
AcDbCircle
 10
167.0179094684
 20
122.9970766198
 30
0.0
 40
0.3249999999999976
  0
LINE
  5
69
330
42
100
AcDbEntity
  8
6021520
  6
Continuous
 62
     7
100
AcDbLine
 10
114.7081594684
 20
121.6970766198
 30
0.0
 11
114.7081594684
 21
121.6510766198
 31
0.0
  0
LINE
  5
6A
330
42
100
AcDbEntity
  8
6021520
  6
Continuous
 62
     7
100
AcDbLine
 10
115.9776594684
 20
121.6510766198
 30
0.0
 11
115.9776594684
 21
121.6970766198
 31
0.0
  0
LINE
  5
6B
330
42
100
AcDbEntity
  8
6021520
  6
Continuous
 62
     7
100
AcDbLine
 10
117.2081594684
 20
121.6970766198
 30
0.0
 11
117.2081594684
 21
121.6510766198
 31
0.0
  0
LINE
  5
6C
330
42
100
AcDbEntity
  8
6021520
  6
Continuous
 62
     7
100
AcDbLine
 10
118.4776594684
 20
121.6510766198
 30
0.0
 11
118.4776594684
 21
121.6970766198
 31
0.0
  0
LINE
  5
6E
330
42
100
AcDbEntity
  8
6601630
  6
Continuous
 62
     7
100
AcDbLine
 10
110.8179094684
 20
136.2705766198
 30
0.0
 11
110.8179094684
 21
121.8645766198
 31
0.0
  0
ARC
  5
6F
330
42
100
AcDbEntity
  8
6601630
  6
Continuous
 62
     7
100
AcDbCircle
 10
110.9399094684
 20
136.2705766198
 30
0.0
 40
0.1219999999999999
100
AcDbArc
 50
100.3888578155
 51
150.0
  0
ARC
  5
70
330
42
100
AcDbEntity
  8
6601630
  6
Continuous
 62
     7
100
AcDbCircle
 10
110.9399094684
 20
136.2705766198
 30
0.0
 40
0.1220000000000002
100
AcDbArc
 50
150.0
 51
180.0
  0
LINE
  5
71
330
42
100
AcDbEntity
  8
6601630
  6
Continuous
 62
     7
100
AcDbLine
 10
110.8342543691
 20
136.3315766198
 30
0.0
 11
110.9179094684
 21
136.3315766198
 31
0.0
  0
LINE
  5
72
330
42
100
AcDbEntity
  8
6601630
  6
Continuous
 62
     7
100
AcDbLine
 10
110.9179094684
 20
121.8036766198
 30
0.0
 11
110.8342543691
 21
121.8036766198
 31
0.0
  0
ELLIPSE
  5
73
330
42
100
AcDbEntity
  8
6601630
  6
Continuous
 62
     7
100
AcDbEllipse
 10
110.9399094684
 20
121.8645766198
 30
0.0
 11
0.1219999999999888
 21
1.938733894508247E-12
 31
0.0
210
0.0
220
0.0
230
1.0
 40
0.9983606557
 41
3.141592653589793
 42
3.665191429171688
  0
ELLIPSE
  5
74
330
42
100
AcDbEntity
  8
6601630
  6
Continuous
 62
     7
100
AcDbEllipse
 10
110.9399094684
 20
136.2705766198
 30
0.0
 11
0.1219999999999888
 21
-2.114967924154357E-12
 31
0.0
210
0.0
220
0.0
230
1.0
 40
0.9983606557
 41
2.617993878009341
 42
3.141592653589793
  0
LINE
  5
75
330
42
100
AcDbEntity
  8
6601630
  6
Continuous
 62
     7
100
AcDbLine
 10
110.9179094684
 20
136.3314766198
 30
0.0
 11
110.8342543691
 21
136.3314766198
 31
0.0
  0
CIRCLE
  5
76
330
42
100
AcDbEntity
  8
6601630
  6
Continuous
 62
     7
100
AcDbCircle
 10
111.3179094684
 20
122.9675766198
 30
0.0
 40
0.125
  0
CIRCLE
  5
77
330
42
100
AcDbEntity
  8
6601630
  6
Continuous
 62
     7
100
AcDbCircle
 10
111.3179094684
 20
135.1675766198
 30
0.0
 40
0.125
  0
CIRCLE
  5
78
330
42
100
AcDbEntity
  8
6601630
  6
Continuous
 62
     7
100
AcDbCircle
 10
111.3179094684
 20
129.0675766198
 30
0.0
 40
0.125
  0
LINE
  5
79
330
42
100
AcDbEntity
  8
6601630
  6
Continuous
 62
     7
100
AcDbLine
 10
110.8342543691
 20
121.8035766198
 30
0.0
 11
110.9179094684
 21
121.8035766198
 31
0.0
  0
ARC
  5
7A
330
42
100
AcDbEntity
  8
6601630
  6
Continuous
 62
     7
100
AcDbCircle
 10
110.9399094684
 20
121.8645766198
 30
0.0
 40
0.1219999999999999
100
AcDbArc
 50
210.0
 51
259.6111421845
  0
ARC
  5
7B
330
42
100
AcDbEntity
  8
6601630
  6
Continuous
 62
     7
100
AcDbCircle
 10
110.9399094684
 20
121.8645766198
 30
0.0
 40
0.1219999999999782
100
AcDbArc
 50
180.0
 51
210.0
  0
LINE
  5
7D
330
42
100
AcDbEntity
  8
6601635
  6
Continuous
 62
     7
100
AcDbLine
 10
168.2679094684
 20
136.2705766198
 30
0.0
 11
168.2679094684
 21
121.8645766198
 31
0.0
  0
ARC
  5
7E
330
42
100
AcDbEntity
  8
6601635
  6
Continuous
 62
     7
100
AcDbCircle
 10
168.1459094684
 20
136.2705766198
 30
0.0
 40
0.1219999999999999
100
AcDbArc
 50
30.0
 51
79.6111421845
  0
ARC
  5
7F
330
42
100
AcDbEntity
  8
6601635
  6
Continuous
 62
     7
100
AcDbCircle
 10
168.1459094684
 20
136.2705766198
 30
0.0
 40
0.1219999999999966
100
AcDbArc
 50
0.0
 51
30.0
  0
LINE
  5
80
330
42
100
AcDbEntity
  8
6601635
  6
Continuous
 62
     7
100
AcDbLine
 10
168.2515645677
 20
136.3315766198
 30
0.0
 11
168.1679094684
 21
136.3315766198
 31
0.0
  0
LINE
  5
81
330
42
100
AcDbEntity
  8
6601635
  6
Continuous
 62
     7
100
AcDbLine
 10
168.1679094684
 20
121.8036766198
 30
0.0
 11
168.2515645677
 21
121.8036766198
 31
0.0
  0
ELLIPSE
  5
82
330
42
100
AcDbEntity
  8
6601635
  6
Continuous
 62
     7
100
AcDbEllipse
 10
168.1459094684
 20
121.8645766198
 30
0.0
 11
-0.1219999999999794
 21
-4.586678248048345E-13
 31
0.0
210
0.0
220
0.0
230
1.0
 40
0.9983606557
 41
2.617993877987947
 42
3.141592653589761
  0
ELLIPSE
  5
83
330
42
100
AcDbEntity
  8
6601635
  6
Continuous
 62
     7
100
AcDbEllipse
 10
168.1459094684
 20
136.2705766198
 30
0.0
 11
-0.1220000000000474
 21
-1.905427203769492E-12
 31
0.0
210
0.0
220
0.0
230
1.0
 40
0.9983606557
 41
3.141592653589793
 42
3.665191429172793
  0
LINE
  5
84
330
42
100
AcDbEntity
  8
6601635
  6
Continuous
 62
     7
100
AcDbLine
 10
168.1679094684
 20
136.3314766198
 30
0.0
 11
168.2515645677
 21
136.3314766198
 31
0.0
  0
CIRCLE
  5
85
330
42
100
AcDbEntity
  8
6601635
  6
Continuous
 62
     7
100
AcDbCircle
 10
167.7679094684
 20
122.9675766198
 30
0.0
 40
0.125
  0
CIRCLE
  5
86
330
42
100
AcDbEntity
  8
6601635
  6
Continuous
 62
     7
100
AcDbCircle
 10
167.7679094684
 20
135.1675766198
 30
0.0
 40
0.125
  0
CIRCLE
  5
87
330
42
100
AcDbEntity
  8
6601635
  6
Continuous
 62
     7
100
AcDbCircle
 10
167.7679094684
 20
129.0675766198
 30
0.0
 40
0.125
  0
LINE
  5
88
330
42
100
AcDbEntity
  8
6601635
  6
Continuous
 62
     7
100
AcDbLine
 10
168.2515645677
 20
121.8035766198
 30
0.0
 11
168.1679094684
 21
121.8035766198
 31
0.0
  0
ARC
  5
89
330
42
100
AcDbEntity
  8
6601635
  6
Continuous
 62
     7
100
AcDbCircle
 10
168.1459094684
 20
121.8645766198
 30
0.0
 40
0.1219999999999999
100
AcDbArc
 50
280.3888578155
 51
330.0
  0
ARC
  5
8A
330
42
100
AcDbEntity
  8
6601635
  6
Continuous
 62
     7
100
AcDbCircle
 10
168.1459094684
 20
121.8645766198
 30
0.0
 40
0.1220000000000039
100
AcDbArc
 50
330.0
 51
360.0
  0
LINE
  5
8C
330
42
100
AcDbEntity
  8
6301665
  6
Continuous
 62
     7
100
AcDbLine
 10
112.2250232807
 20
134.3315766198
 30
0.0
 11
111.9107956562
 21
134.3315766198
 31
0.0
  0
LINE
  5
8D
330
42
100
AcDbEntity
  8
6301665
  6
Continuous
 62
     7
100
AcDbLine
 10
167.1750232807
 20
134.3315766198
 30
0.0
 11
166.8607956562
 21
134.3315766198
 31
0.0
  0
LINE
  5
8F
330
42
100
AcDbEntity
  8
6802420
  6
Continuous
 62
     7
100
AcDbLine
 10
162.4733891397
 20
122.9380766198
 30
0.0
 11
161.4874297971
 21
122.9380766198
 31
0.0
  0
LINE
  5
90
330
42
100
AcDbEntity
  8
6802420
  6
Continuous
 62
     7
100
AcDbLine
 10
117.5983891397
 20
122.9380766198
 30
0.0
 11
116.6124297971
 21
122.9380766198
 31
0.0
  0
LINE
  5
92
330
42
100
AcDbEntity
  8
1M_PHV_T_LOOSE_G
  6
Continuous
 62
     7
100
AcDbLine
 10
113.3179094684
 20
137.2130766198
 30
0.0
 11
113.3179094684
 21
136.4630766198
 31
0.0
  0
LINE
  5
93
330
42
100
AcDbEntity
  8
1M_PHV_T_LOOSE_G
  6
Continuous
 62
     7
100
AcDbLine
 10
165.4679094684
 20
137.2130766198
 30
0.0
 11
165.4679094684
 21
136.4630766198
 31
0.0
  0
LINE
  5
94
330
42
100
AcDbEntity
  8
1M_PHV_T_LOOSE_G
  6
Continuous
 62
     7
100
AcDbLine
 10
166.7279094684
 20
137.5130766198
 30
0.0
 11
166.9929094684
 21
137.2480766198
 31
0.0
  0
LINE
  5
95
330
42
100
AcDbEntity
  8
1M_PHV_T_LOOSE_G
  6
Continuous
 62
     7
100
AcDbLine
 10
166.9929094684
 20
137.2480766198
 30
0.0
 11
166.9929094684
 21
137.2130766198
 31
0.0
  0
LINE
  5
96
330
42
100
AcDbEntity
  8
1M_PHV_T_LOOSE_G
  6
Continuous
 62
     7
100
AcDbLine
 10
166.7279094684
 20
137.5130766198
 30
0.0
 11
112.0579094684
 21
137.5130766198
 31
0.0
  0
LINE
  5
97
330
42
100
AcDbEntity
  8
1M_PHV_T_LOOSE_G
  6
Continuous
 62
     7
100
AcDbLine
 10
112.0579094684
 20
137.5130766198
 30
0.0
 11
111.7929094684
 21
137.2480766198
 31
0.0
  0
LINE
  5
98
330
42
100
AcDbEntity
  8
1M_PHV_T_LOOSE_G
  6
Continuous
 62
     7
100
AcDbLine
 10
166.9929094684
 20
137.2480766198
 30
0.0
 11
111.7929094684
 21
137.2480766198
 31
0.0
  0
LINE
  5
99
330
42
100
AcDbEntity
  8
1M_PHV_T_LOOSE_G
  6
Continuous
 62
     7
100
AcDbLine
 10
111.7929094684
 20
137.2480766198
 30
0.0
 11
111.7929094684
 21
137.2130766198
 31
0.0
  0
LINE
  5
9A
330
42
100
AcDbEntity
  8
1M_PHV_T_LOOSE_G
  6
Continuous
 62
     7
100
AcDbLine
 10
166.9929094684
 20
137.2130766198
 30
0.0
 11
111.7929094684
 21
137.2130766198
 31
0.0
  0
ENDBLK
  5
9C
330
42
100
AcDbEntity
  8
0
100
AcDbBlockEnd
  0
BLOCK
  5
10F
330
9D
100
AcDbEntity
  8
0
100
AcDbBlockBegin
  2
SE1
 70
     0
 10
0.0
 20
0.0
 30
0.0
  3
SE1
  1

  0
LINE
  5
9F
330
9D
100
AcDbEntity
  8
6021520
  6
Continuous
 62
     7
100
AcDbLine
 10
231.3578192341
 20
136.4484618757
 30
0.0
 11
231.8098789601
 21
136.4484618757
 31
0.0
  0
LINE
  5
A0
330
9D
100
AcDbEntity
  8
6021520
  6
Continuous
 62
     7
100
AcDbLine
 10
231.3578192341
 20
136.4029618757
 30
0.0
 11
231.8098789601
 21
136.4029618757
 31
0.0
  0
LINE
  5
A1
330
9D
100
AcDbEntity
  8
6021520
  6
Continuous
 62
     7
100
AcDbLine
 10
230.7918789601
 20
136.4029618757
 30
0.0
 11
231.3578192341
 21
136.4029618757
 31
0.0
  0
LINE
  5
A2
330
9D
100
AcDbEntity
  8
6021520
  6
Continuous
 62
     7
100
AcDbLine
 10
230.7918789601
 20
136.4484618757
 30
0.0
 11
231.3578192341
 21
136.4484618757
 31
0.0
  0
LINE
  5
A3
330
9D
100
AcDbEntity
  8
6021520
  6
Continuous
 62
     7
100
AcDbLine
 10
231.3578192341
 20
136.4484618757
 30
0.0
 11
231.3578192341
 21
136.4029618757
 31
0.0
  0
ARC
  5
A4
330
9D
100
AcDbEntity
  8
6021520
  6
Continuous
 62
     7
100
AcDbCircle
 10
210.2418789601
 20
122.7914618757
 30
0.0
 40
0.0909999999999911
100
AcDbArc
 50
113.6468940834
 51
180.0
  0
LINE
  5
A5
330
9D
100
AcDbEntity
  8
6021520
  6
Continuous
 62
     7
100
AcDbLine
 10
210.1508789601
 20
122.7914618757
 30
0.0
 11
210.1508789601
 21
122.7505216017
 31
0.0
  0
LINE
  5
A6
330
9D
100
AcDbEntity
  8
6021520
  6
Continuous
 62
     7
100
AcDbLine
 10
210.1508789601
 20
122.7505216017
 30
0.0
 11
210.1963789601
 21
122.7505216017
 31
0.0
  0
LINE
  5
A7
330
9D
100
AcDbEntity
  8
6021520
  6
Continuous
 62
     7
100
AcDbLine
 10
210.1508789601
 20
121.7734618757
 30
0.0
 11
210.1508789601
 21
122.7505216017
 31
0.0
  0
LINE
  5
A8
330
9D
100
AcDbEntity
  8
6021520
  6
Continuous
 62
     7
100
AcDbLine
 10
210.1963789601
 20
121.7734618757
 30
0.0
 11
210.1963789601
 21
122.7505216017
 31
0.0
  0
ARC
  5
A9
330
9D
100
AcDbEntity
  8
6021520
  6
Continuous
 62
     7
100
AcDbCircle
 10
210.2418789601
 20
121.7734618757
 30
0.0
 40
0.0910000000000008
100
AcDbArc
 50
180.0
 51
270.0
  0
LINE
  5
AA
330
9D
100
AcDbEntity
  8
6021520
  6
Continuous
 62
     7
100
AcDbLine
 10
210.2418789601
 20
121.6824618757
 30
0.0
 11
231.8098789601
 21
121.6824618757
 31
0.0
  0
ARC
  5
AB
330
9D
100
AcDbEntity
  8
6021520
  6
Continuous
 62
     7
100
AcDbCircle
 10
231.8098789601
 20
121.7734618757
 30
0.0
 40
0.0910000000000008
100
AcDbArc
 50
270.0
 51
0.0
  0
ARC
  5
AC
330
9D
100
AcDbEntity
  8
6021520
  6
Continuous
 62
     7
100
AcDbCircle
 10
231.8098789601
 20
136.3574618757
 30
0.0
 40
0.0909999999999994
100
AcDbArc
 50
0.0
 51
90.0
  0
LINE
  5
AD
330
9D
100
AcDbEntity
  8
6021520
  6
Continuous
 62
     7
100
AcDbLine
 10
231.8553789601
 20
136.3574618757
 30
0.0
 11
231.8553789601
 21
121.7734618757
 31
0.0
  0
LINE
  5
AE
330
9D
100
AcDbEntity
  8
6021520
  6
Continuous
 62
     7
100
AcDbLine
 10
210.1963789601
 20
122.7914618757
 30
0.0
 11
210.1963789601
 21
122.7505216017
 31
0.0
  0
LINE
  5
AF
330
9D
100
AcDbEntity
  8
6021520
  6
Continuous
 62
     7
100
AcDbLine
 10
210.2418789601
 20
121.7279618757
 30
0.0
 11
231.8098789601
 21
121.7279618757
 31
0.0
  0
LINE
  5
B0
330
9D
100
AcDbEntity
  8
6021520
  6
Continuous
 62
     7
100
AcDbLine
 10
231.9008789601
 20
136.3574618757
 30
0.0
 11
231.9008789601
 21
121.7734618757
 31
0.0
  0
ARC
  5
B1
330
9D
100
AcDbEntity
  8
6021520
  6
Continuous
 62
     7
100
AcDbCircle
 10
231.8098789601
 20
121.7734618757
 30
0.0
 40
0.0454999999999997
100
AcDbArc
 50
270.0
 51
0.0
  0
ARC
  5
B2
330
9D
100
AcDbEntity
  8
6021520
  6
Continuous
 62
     7
100
AcDbCircle
 10
231.8098789601
 20
136.3574618757
 30
0.0
 40
0.0454999999999983
100
AcDbArc
 50
0.0
 51
90.0
  0
ARC
  5
B3
330
9D
100
AcDbEntity
  8
6021520
  6
Continuous
 62
     7
100
AcDbCircle
 10
210.2418789601
 20
121.7734618757
 30
0.0
 40
0.0455000000000011
100
AcDbArc
 50
180.0
 51
270.0
  0
ARC
  5
B4
330
9D
100
AcDbEntity
  8
6021520
  6
Continuous
 62
     7
100
AcDbCircle
 10
210.2418789601
 20
122.7914618757
 30
0.0
 40
0.0455000000000011
100
AcDbArc
 50
143.3404925119
 51
180.0
  0
ARC
  5
B5
330
9D
100
AcDbEntity
  8
6021520
  6
Continuous
 62
     7
100
AcDbCircle
 10
230.7918789601
 20
136.3574618757
 30
0.0
 40
0.0909999999999966
100
AcDbArc
 50
90.0
 51
166.9809664824
  0
ARC
  5
B6
330
9D
100
AcDbEntity
  8
6021520
  6
Continuous
 62
     7
100
AcDbCircle
 10
230.7918789601
 20
136.3574618757
 30
0.0
 40
0.0454999999999983
100
AcDbArc
 50
90.0
 51
153.2210584075
  0
LINE
  5
B7
330
9D
100
AcDbEntity
  8
6021520
  6
Continuous
 62
     7
100
AcDbLine
 10
213.5356289601
 20
121.6364618757
 30
0.0
 11
212.2661289601
 21
121.6364618757
 31
0.0
  0
LINE
  5
B8
330
9D
100
AcDbEntity
  8
6021520
  6
Continuous
 62
     7
100
AcDbLine
 10
212.2661289601
 20
121.6824618757
 30
0.0
 11
212.2661289601
 21
121.6364618757
 31
0.0
  0
LINE
  5
B9
330
9D
100
AcDbEntity
  8
6021520
  6
Continuous
 62
     7
100
AcDbLine
 10
213.5356289601
 20
121.6364618757
 30
0.0
 11
213.5356289601
 21
121.6824618757
 31
0.0
  0
LINE
  5
BA
330
9D
100
AcDbEntity
  8
6601630
  6
Continuous
 62
     7
100
AcDbLine
 10
231.7333789601
 20
136.2559618757
 30
0.0
 11
231.7333789601
 21
121.8499618757
 31
0.0
  0
LINE
  5
BB
330
9D
100
AcDbEntity
  8
6601630
  6
Continuous
 62
     7
100
AcDbLine
 10
231.7333789601
 20
121.8499618757
 30
0.0
 11
210.3273789601
 21
121.8499618757
 31
0.0
  0
LINE
  5
BC
330
9D
100
AcDbEntity
  8
6601630
  6
Continuous
 62
     7
100
AcDbLine
 10
210.3273789601
 20
136.2559618757
 30
0.0
 11
231.7333789601
 21
136.2559618757
 31
0.0
  0
LINE
  5
BD
330
9D
100
AcDbEntity
  8
6601630
  6
Continuous
 62
     7
100
AcDbLine
 10
210.3273789601
 20
121.8499618757
 30
0.0
 11
210.3273789601
 21
136.2559618757
 31
0.0
  0
CIRCLE
  5
BE
330
9D
100
AcDbEntity
  8
6601630
  6
Continuous
 62
     7
100
AcDbCircle
 10
214.9803789601
 20
125.3029618757
 30
0.0
 40
0.5
  0
CIRCLE
  5
BF
330
9D
100
AcDbEntity
  8
6601630
  6
Continuous
 62
     7
100
AcDbCircle
 10
213.0803789601
 20
125.3029618757
 30
0.0
 40
0.635
  0
CIRCLE
  5
C0
330
9D
100
AcDbEntity
  8
6601630
  6
Continuous
 62
     7
100
AcDbCircle
 10
219.3053789601
 20
126.4779618757
 30
0.0
 40
0.0875
  0
CIRCLE
  5
C1
330
9D
100
AcDbEntity
  8
6601630
  6
Continuous
 62
     7
100
AcDbCircle
 10
219.3053789601
 20
133.9779618757
 30
0.0
 40
0.0875
  0
CIRCLE
  5
C2
330
9D
100
AcDbEntity
  8
6601630
  6
Continuous
 62
     7
100
AcDbCircle
 10
214.7053789601
 20
133.9779618757
 30
0.0
 40
0.0875
  0
CIRCLE
  5
C3
330
9D
100
AcDbEntity
  8
6601630
  6
Continuous
 62
     7
100
AcDbCircle
 10
214.7053789601
 20
126.4779618757
 30
0.0
 40
0.0875
  0
LINE
  5
C4
330
9D
100
AcDbEntity
  8
6601630
  6
Continuous
 62
     7
100
AcDbLine
 10
231.7942789601
 20
136.3779618757
 30
0.0
 11
231.7942789601
 21
136.3169618757
 31
0.0
  0
LINE
  5
C5
330
9D
100
AcDbEntity
  8
6601630
  6
Continuous
 62
     7
100
AcDbLine
 10
231.7942789601
 20
136.3169618757
 30
0.0
 11
231.7333789601
 21
136.2559618757
 31
0.0
  0
LINE
  5
C6
330
9D
100
AcDbEntity
  8
6601630
  6
Continuous
 62
     7
100
AcDbLine
 10
210.2664789601
 20
136.3779618757
 30
0.0
 11
210.2664789601
 21
136.3169618757
 31
0.0
  0
LINE
  5
C7
330
9D
100
AcDbEntity
  8
6601630
  6
Continuous
 62
     7
100
AcDbLine
 10
210.2664789601
 20
136.3169618757
 30
0.0
 11
210.3273789601
 21
136.2559618757
 31
0.0
  0
LINE
  5
C8
330
9D
100
AcDbEntity
  8
6601630
  6
Continuous
 62
     7
100
AcDbLine
 10
231.7942789601
 20
136.3779618757
 30
0.0
 11
210.2664789601
 21
136.3779618757
 31
0.0
  0
LINE
  5
C9
330
9D
100
AcDbEntity
  8
6601630
  6
Continuous
 62
     7
100
AcDbLine
 10
210.2053789601
 20
136.3168618757
 30
0.0
 11
210.2663789601
 21
136.3168618757
 31
0.0
  0
LINE
  5
CA
330
9D
100
AcDbEntity
  8
6601630
  6
Continuous
 62
     7
100
AcDbLine
 10
210.2663789601
 20
136.3168618757
 30
0.0
 11
210.3273789601
 21
136.2559618757
 31
0.0
  0
LINE
  5
CB
330
9D
100
AcDbEntity
  8
6601630
  6
Continuous
 62
     7
100
AcDbLine
 10
210.2053789601
 20
121.7890618757
 30
0.0
 11
210.2663789601
 21
121.7890618757
 31
0.0
  0
LINE
  5
CC
330
9D
100
AcDbEntity
  8
6601630
  6
Continuous
 62
     7
100
AcDbLine
 10
210.2663789601
 20
121.7890618757
 30
0.0
 11
210.3273789601
 21
121.8499618757
 31
0.0
  0
LINE
  5
CD
330
9D
100
AcDbEntity
  8
6601630
  6
Continuous
 62
     7
100
AcDbLine
 10
210.2053789601
 20
136.3168618757
 30
0.0
 11
210.2053789601
 21
121.7890618757
 31
0.0
  0
LINE
  5
CE
330
9D
100
AcDbEntity
  8
6601630
  6
Continuous
 62
     7
100
AcDbLine
 10
231.8553789601
 20
121.7890618757
 30
0.0
 11
231.7943789601
 21
121.7890618757
 31
0.0
  0
LINE
  5
CF
330
9D
100
AcDbEntity
  8
6601630
  6
Continuous
 62
     7
100
AcDbLine
 10
231.7943789601
 20
121.7890618757
 30
0.0
 11
231.7333789601
 21
121.8499618757
 31
0.0
  0
LINE
  5
D0
330
9D
100
AcDbEntity
  8
6601630
  6
Continuous
 62
     7
100
AcDbLine
 10
231.7943789601
 20
136.3168618757
 30
0.0
 11
231.7333789601
 21
136.2559618757
 31
0.0
  0
LINE
  5
D1
330
9D
100
AcDbEntity
  8
6601630
  6
Continuous
 62
     7
100
AcDbLine
 10
231.8553789601
 20
136.3168618757
 30
0.0
 11
231.7943789601
 21
136.3168618757
 31
0.0
  0
LINE
  5
D2
330
9D
100
AcDbEntity
  8
6601630
  6
Continuous
 62
     7
100
AcDbLine
 10
210.2664789601
 20
121.7279618757
 30
0.0
 11
210.2664789601
 21
121.7889618757
 31
0.0
  0
LINE
  5
D3
330
9D
100
AcDbEntity
  8
6601630
  6
Continuous
 62
     7
100
AcDbLine
 10
210.2664789601
 20
121.7889618757
 30
0.0
 11
210.3273789601
 21
121.8499618757
 31
0.0
  0
LINE
  5
D4
330
9D
100
AcDbEntity
  8
6601630
  6
Continuous
 62
     7
100
AcDbLine
 10
231.7942789601
 20
121.7279618757
 30
0.0
 11
231.7942789601
 21
121.7889618757
 31
0.0
  0
LINE
  5
D5
330
9D
100
AcDbEntity
  8
6601630
  6
Continuous
 62
     7
100
AcDbLine
 10
231.7942789601
 20
121.7889618757
 30
0.0
 11
231.7333789601
 21
121.8499618757
 31
0.0
  0
CIRCLE
  5
D6
330
9D
100
AcDbEntity
  8
6601630
  6
Continuous
 62
     7
100
AcDbCircle
 10
226.9803789601
 20
135.7529618757
 30
0.0
 40
0.125
  0
CIRCLE
  5
D7
330
9D
100
AcDbEntity
  8
6601630
  6
Continuous
 62
     7
100
AcDbCircle
 10
226.9803789601
 20
134.7529618757
 30
0.0
 40
0.125
  0
CIRCLE
  5
D8
330
9D
100
AcDbEntity
  8
6601630
  6
Continuous
 62
     7
100
AcDbCircle
 10
229.6303789601
 20
134.7529618757
 30
0.0
 40
0.125
  0
CIRCLE
  5
D9
330
9D
100
AcDbEntity
  8
6601630
  6
Continuous
 62
     7
100
AcDbCircle
 10
229.6303789601
 20
135.7529618757
 30
0.0
 40
0.125
  0
CIRCLE
  5
DA
330
9D
100
AcDbEntity
  8
6601630
  6
Continuous
 62
     7
100
AcDbCircle
 10
211.2553789601
 20
134.7529618757
 30
0.0
 40
0.125
  0
CIRCLE
  5
DB
330
9D
100
AcDbEntity
  8
6601630
  6
Continuous
 62
     7
100
AcDbCircle
 10
213.9053789601
 20
134.7529618757
 30
0.0
 40
0.125
  0
CIRCLE
  5
DC
330
9D
100
AcDbEntity
  8
6601630
  6
Continuous
 62
     7
100
AcDbCircle
 10
213.9053789601
 20
135.7529618757
 30
0.0
 40
0.125
  0
CIRCLE
  5
DD
330
9D
100
AcDbEntity
  8
6601630
  6
Continuous
 62
     7
100
AcDbCircle
 10
211.2553789601
 20
135.7529618757
 30
0.0
 40
0.125
  0
CIRCLE
  5
DE
330
9D
100
AcDbEntity
  8
6601630
  6
Continuous
 62
     7
100
AcDbCircle
 10
228.3053789601
 20
135.2529618757
 30
0.0
 40
0.24
  0
CIRCLE
  5
DF
330
9D
100
AcDbEntity
  8
6601630
  6
Continuous
 62
     7
100
AcDbCircle
 10
212.5803789601
 20
135.2529618757
 30
0.0
 40
0.24
  0
CIRCLE
  5
E0
330
9D
100
AcDbEntity
  8
6601630
  6
Continuous
 62
     7
100
AcDbCircle
 10
217.6553789601
 20
126.3529618757
 30
0.0
 40
0.125
  0
CIRCLE
  5
E1
330
9D
100
AcDbEntity
  8
6601630
  6
Continuous
 62
     7
100
AcDbCircle
 10
217.6553789601
 20
127.5029618757
 30
0.0
 40
0.125
  0
CIRCLE
  5
E2
330
9D
100
AcDbEntity
  8
6601630
  6
Continuous
 62
     7
100
AcDbCircle
 10
217.6553789601
 20
129.3029618757
 30
0.0
 40
0.125
  0
CIRCLE
  5
E3
330
9D
100
AcDbEntity
  8
6601630
  6
Continuous
 62
     7
100
AcDbCircle
 10
217.6553789601
 20
131.1029618757
 30
0.0
 40
0.125
  0
CIRCLE
  5
E4
330
9D
100
AcDbEntity
  8
6601630
  6
Continuous
 62
     7
100
AcDbCircle
 10
217.6553789601
 20
125.1529618757
 30
0.0
 40
0.125
  0
LINE
  5
E5
330
9D
100
AcDbEntity
  8
6301665
  6
Continuous
 62
     7
100
AcDbLine
 10
214.0127521411
 20
134.8169618757
 30
0.0
 11
213.7980057791
 21
134.8169618757
 31
0.0
  0
LINE
  5
E6
330
9D
100
AcDbEntity
  8
6301665
  6
Continuous
 62
     7
100
AcDbLine
 10
213.8146651243
 20
135.6669618757
 30
0.0
 11
213.9960927959
 21
135.6669618757
 31
0.0
  0
LINE
  5
E7
330
9D
100
AcDbEntity
  8
6301665
  6
Continuous
 62
     7
100
AcDbLine
 10
212.800660343
 20
135.3482305081
 30
0.0
 11
212.7730247075
 21
135.396096833
 31
0.0
  0
LINE
  5
E8
330
9D
100
AcDbEntity
  8
6301665
  6
Continuous
 62
     7
100
AcDbLine
 10
212.6048419423
 20
135.4917118757
 30
0.0
 11
212.5559159778
 21
135.4917118757
 31
0.0
  0
LINE
  5
E9
330
9D
100
AcDbEntity
  8
6301665
  6
Continuous
 62
     7
100
AcDbLine
 10
212.3837185993
 20
135.3905289593
 30
0.0
 11
212.3629121905
 21
135.3544912021
 31
0.0
  0
LINE
  5
EA
330
9D
100
AcDbEntity
  8
6301665
  6
Continuous
 62
     7
100
AcDbLine
 10
212.3629121905
 20
135.1514325492
 30
0.0
 11
212.3837185993
 21
135.115394792
 31
0.0
  0
LINE
  5
EB
330
9D
100
AcDbEntity
  8
6301665
  6
Continuous
 62
     7
100
AcDbLine
 10
212.5559159778
 20
135.0142118757
 30
0.0
 11
212.6048419423
 21
135.0142118757
 31
0.0
  0
LINE
  5
EC
330
9D
100
AcDbEntity
  8
6301665
  6
Continuous
 62
     7
100
AcDbLine
 10
212.7730247075
 20
135.1098269183
 30
0.0
 11
212.800660343
 21
135.1576932432
 31
0.0
  0
LINE
  5
ED
330
9D
100
AcDbEntity
  8
6301665
  6
Continuous
 62
     7
100
AcDbLine
 10
229.7377521411
 20
134.8169618757
 30
0.0
 11
229.5230057791
 21
134.8169618757
 31
0.0
  0
LINE
  5
EE
330
9D
100
AcDbEntity
  8
6301665
  6
Continuous
 62
     7
100
AcDbLine
 10
229.5396651243
 20
135.6669618757
 30
0.0
 11
229.7210927959
 21
135.6669618757
 31
0.0
  0
LINE
  5
EF
330
9D
100
AcDbEntity
  8
6301665
  6
Continuous
 62
     7
100
AcDbLine
 10
228.3298419423
 20
135.4917118757
 30
0.0
 11
228.2809159778
 21
135.4917118757
 31
0.0
  0
LINE
  5
F0
330
9D
100
AcDbEntity
  8
6301665
  6
Continuous
 62
     7
100
AcDbLine
 10
228.12410473
 20
135.4102503161
 30
0.0
 11
228.0785260599
 21
135.3313057437
 31
0.0
  0
LINE
  5
F1
330
9D
100
AcDbEntity
  8
6301665
  6
Continuous
 62
     7
100
AcDbLine
 10
228.0785260599
 20
135.1746180076
 30
0.0
 11
228.12410473
 21
135.0956734352
 31
0.0
  0
LINE
  5
F2
330
9D
100
AcDbEntity
  8
6301665
  6
Continuous
 62
     7
100
AcDbLine
 10
228.2809159778
 20
135.0142118757
 30
0.0
 11
228.3298419423
 21
135.0142118757
 31
0.0
  0
LINE
  5
F3
330
9D
100
AcDbEntity
  8
6802420
  6
Continuous
 62
     7
100
AcDbLine
 10
210.1598789601
 20
123.0373424236
 30
0.0
 11
210.1598789601
 21
136.3324618757
 31
0.0
  0
LINE
  5
F4
330
9D
100
AcDbEntity
  8
6802420
  6
Continuous
 62
     7
100
AcDbLine
 10
210.2508789601
 20
136.3779618757
 30
0.0
 11
210.2664789601
 21
136.3779618757
 31
0.0
  0
ARC
  5
F5
330
9D
100
AcDbEntity
  8
6802420
  6
Continuous
 62
     7
100
AcDbCircle
 10
210.2508789601
 20
136.3324618757
 30
0.0
 40
0.0454999999999997
100
AcDbArc
 50
90.0
 51
180.0
  0
LINE
  5
F6
330
9D
100
AcDbEntity
  8
6802420
  6
Continuous
 62
     7
100
AcDbLine
 10
210.2053789601
 20
136.3168618757
 30
0.0
 11
210.2053789601
 21
136.3324618757
 31
0.0
  0
LINE
  5
F7
330
9D
100
AcDbEntity
  8
6802420
  6
Continuous
 62
     7
100
AcDbLine
 10
210.2508789601
 20
136.4234618757
 30
0.0
 11
211.0779386861
 21
136.4234618757
 31
0.0
  0
ARC
  5
F8
330
9D
100
AcDbEntity
  8
6802420
  6
Continuous
 62
     7
100
AcDbCircle
 10
210.2508789601
 20
136.3324618757
 30
0.0
 40
0.0910000000000001
100
AcDbArc
 50
90.0
 51
180.0
  0
LINE
  5
F9
330
9D
100
AcDbEntity
  8
6802420
  6
Continuous
 62
     7
100
AcDbLine
 10
210.2053789601
 20
123.0373424236
 30
0.0
 11
210.1598789601
 21
123.0373424236
 31
0.0
  0
LINE
  5
FA
330
9D
100
AcDbEntity
  8
6802420
  6
Continuous
 62
     7
100
AcDbLine
 10
210.1598789601
 20
123.0144618757
 30
0.0
 11
210.1598789601
 21
123.0373424236
 31
0.0
  0
LINE
  5
FB
330
9D
100
AcDbEntity
  8
6802420
  6
Continuous
 62
     7
100
AcDbLine
 10
211.0779386861
 20
136.3779618757
 30
0.0
 11
211.0779386861
 21
136.4234618757
 31
0.0
  0
LINE
  5
FC
330
9D
100
AcDbEntity
  8
6802420
  6
Continuous
 62
     7
100
AcDbLine
 10
211.0779386861
 20
136.4234618757
 30
0.0
 11
211.3188789601
 21
136.4234618757
 31
0.0
  0
ARC
  5
FD
330
9D
100
AcDbEntity
  8
6802420
  6
Continuous
 62
     7
100
AcDbCircle
 10
210.2508789601
 20
123.0144618757
 30
0.0
 40
0.0910000000000001
100
AcDbArc
 50
180.0
 51
240.0
  0
ARC
  5
FE
330
9D
100
AcDbEntity
  8
6802420
  6
Continuous
 62
     7
100
AcDbCircle
 10
211.3188789601
 20
136.3324618757
 30
0.0
 40
0.0909999999999994
100
AcDbArc
 50
30.0
 51
90.0
  0
LINE
  5
FF
330
9D
100
AcDbEntity
  8
6802420
  6
Continuous
 62
     7
100
AcDbLine
 10
211.3643789601
 20
135.8141501098
 30
0.0
 11
211.3643789601
 21
135.6917736415
 31
0.0
  0
LINE
  5
101
330
9D
100
AcDbEntity
  8
ECOPOWERBOARD
  6
Continuous
 62
     7
100
AcDbLine
 10
217.7098651969
 20
126.2404618757
 30
0.0
 11
217.6008927233
 21
126.2404618757
 31
0.0
  0
LINE
  5
102
330
9D
100
AcDbEntity
  8
1M_PHV_T_LOOSE_G
  6
Continuous
 62
     7
100
AcDbLine
 10
211.9508789601
 20
137.1984618757
 30
0.0
 11
211.9508789601
 21
136.3779618757
 31
0.0
  0
LINE
  5
103
330
9D
100
AcDbEntity
  8
1M_PHV_T_LOOSE_G
  6
Continuous
 62
     7
100
AcDbLine
 10
230.7008789601
 20
137.1984618757
 30
0.0
 11
230.7008789601
 21
136.3779618757
 31
0.0
  0
LINE
  5
104
330
9D
100
AcDbEntity
  8
1M_PHV_T_LOOSE_G
  6
Continuous
 62
     7
100
AcDbLine
 10
231.9608789601
 20
137.4984618757
 30
0.0
 11
232.2258789601
 21
137.2334618757
 31
0.0
  0
LINE
  5
105
330
9D
100
AcDbEntity
  8
1M_PHV_T_LOOSE_G
  6
Continuous
 62
     7
100
AcDbLine
 10
232.2258789601
 20
137.2334618757
 30
0.0
 11
232.2258789601
 21
137.1984618757
 31
0.0
  0
LINE
  5
106
330
9D
100
AcDbEntity
  8
1M_PHV_T_LOOSE_G
  6
Continuous
 62
     7
100
AcDbLine
 10
231.9608789601
 20
137.4984618757
 30
0.0
 11
210.6908789601
 21
137.4984618757
 31
0.0
  0
LINE
  5
107
330
9D
100
AcDbEntity
  8
1M_PHV_T_LOOSE_G
  6
Continuous
 62
     7
100
AcDbLine
 10
210.6908789601
 20
137.4984618757
 30
0.0
 11
210.4258789601
 21
137.2334618757
 31
0.0
  0
LINE
  5
108
330
9D
100
AcDbEntity
  8
1M_PHV_T_LOOSE_G
  6
Continuous
 62
     7
100
AcDbLine
 10
232.2258789601
 20
137.2334618757
 30
0.0
 11
210.4258789601
 21
137.2334618757
 31
0.0
  0
LINE
  5
109
330
9D
100
AcDbEntity
  8
1M_PHV_T_LOOSE_G
  6
Continuous
 62
     7
100
AcDbLine
 10
210.4258789601
 20
137.2334618757
 30
0.0
 11
210.4258789601
 21
137.1984618757
 31
0.0
  0
LINE
  5
10A
330
9D
100
AcDbEntity
  8
1M_PHV_T_LOOSE_G
  6
Continuous
 62
     7
100
AcDbLine
 10
232.2258789601
 20
137.1984618757
 30
0.0
 11
210.4258789601
 21
137.1984618757
 31
0.0
  0
CIRCLE
  5
10B
330
9D
100
AcDbEntity
  8
1M_PHV_T_LOOSE_G
  6
Continuous
 62
     7
100
AcDbCircle
 10
229.9508789601
 20
136.6234618757
 30
0.0
 40
0.125
  0
CIRCLE
  5
10C
330
9D
100
AcDbEntity
  8
1M_PHV_T_LOOSE_G
  6
Continuous
 62
     7
100
AcDbCircle
 10
214.1508789601
 20
136.6234618757
 30
0.0
 40
0.125
  0
LINE
  5
10E
330
9D
100
AcDbEntity
  8
1M_T_R_LOOSE_GRI
  6
Continuous
 62
     7
100
AcDbLine
 10
229.9508789601
 20
136.4984618757
 30
0.0
 11
229.9508789601
 21
136.7484618757
 31
0.0
  0
ENDBLK
  5
110
330
9D
100
AcDbEntity
  8
0
100
AcDbBlockEnd
  0
BLOCK
  5
182
330
111
100
AcDbEntity
  8
0
100
AcDbBlockBegin
  2
SE2
 70
     0
 10
0.0
 20
0.0
 30
0.0
  3
SE2
  1

  0
LINE
  5
113
330
111
100
AcDbEntity
  8
6021520
  6
Continuous
 62
     7
100
AcDbLine
 10
52.8426011114
 20
136.4029634263
 30
0.0
 11
53.2946608375
 21
136.4029634263
 31
0.0
  0
LINE
  5
114
330
111
100
AcDbEntity
  8
6021520
  6
Continuous
 62
     7
100
AcDbLine
 10
52.8426011114
 20
136.4484634263
 30
0.0
 11
53.2946608375
 21
136.4484634263
 31
0.0
  0
LINE
  5
115
330
111
100
AcDbEntity
  8
6021520
  6
Continuous
 62
     7
100
AcDbLine
 10
53.2946608375
 20
136.4029634263
 30
0.0
 11
53.8606011114
 21
136.4029634263
 31
0.0
  0
LINE
  5
116
330
111
100
AcDbEntity
  8
6021520
  6
Continuous
 62
     7
100
AcDbLine
 10
53.2946608375
 20
136.4484634263
 30
0.0
 11
53.2946608375
 21
136.4029634263
 31
0.0
  0
LINE
  5
117
330
111
100
AcDbEntity
  8
6021520
  6
Continuous
 62
     7
100
AcDbLine
 10
53.2946608375
 20
136.4484634263
 30
0.0
 11
53.8606011114
 21
136.4484634263
 31
0.0
  0
LINE
  5
118
330
111
100
AcDbEntity
  8
6021520
  6
Continuous
 62
     7
100
AcDbLine
 10
74.4561011114
 20
122.7914634263
 30
0.0
 11
74.4561011114
 21
122.7505231523
 31
0.0
  0
ARC
  5
119
330
111
100
AcDbEntity
  8
6021520
  6
Continuous
 62
     7
100
AcDbCircle
 10
74.4106011114
 20
122.7914634263
 30
0.0
 40
0.0909999999999994
100
AcDbArc
 50
0.0
 51
66.3531059166
  0
LINE
  5
11A
330
111
100
AcDbEntity
  8
6021520
  6
Continuous
 62
     7
100
AcDbLine
 10
74.5016011114
 20
122.7505231523
 30
0.0
 11
74.4561011114
 21
122.7505231523
 31
0.0
  0
LINE
  5
11B
330
111
100
AcDbEntity
  8
6021520
  6
Continuous
 62
     7
100
AcDbLine
 10
74.4561011114
 20
122.7505231523
 30
0.0
 11
74.4561011114
 21
121.7734634263
 31
0.0
  0
LINE
  5
11C
330
111
100
AcDbEntity
  8
6021520
  6
Continuous
 62
     7
100
AcDbLine
 10
52.7971011114
 20
121.7734634263
 30
0.0
 11
52.7971011114
 21
136.3574634263
 31
0.0
  0
ARC
  5
11D
330
111
100
AcDbEntity
  8
6021520
  6
Continuous
 62
     7
100
AcDbCircle
 10
52.8426011114
 20
136.3574634263
 30
0.0
 40
0.0909999999999966
100
AcDbArc
 50
90.0
 51
180.0
  0
ARC
  5
11E
330
111
100
AcDbEntity
  8
6021520
  6
Continuous
 62
     7
100
AcDbCircle
 10
52.8426011114
 20
121.7734634263
 30
0.0
 40
0.0909999999999994
100
AcDbArc
 50
180.0
 51
270.0
  0
LINE
  5
11F
330
111
100
AcDbEntity
  8
6021520
  6
Continuous
 62
     7
100
AcDbLine
 10
52.8426011114
 20
121.6824634263
 30
0.0
 11
74.4106011114
 21
121.6824634263
 31
0.0
  0
ARC
  5
120
330
111
100
AcDbEntity
  8
6021520
  6
Continuous
 62
     7
100
AcDbCircle
 10
74.4106011114
 20
121.7734634263
 30
0.0
 40
0.0909999999999994
100
AcDbArc
 50
270.0
 51
0.0
  0
LINE
  5
121
330
111
100
AcDbEntity
  8
6021520
  6
Continuous
 62
     7
100
AcDbLine
 10
74.5016011114
 20
122.7914634263
 30
0.0
 11
74.5016011114
 21
122.7505231523
 31
0.0
  0
LINE
  5
122
330
111
100
AcDbEntity
  8
6021520
  6
Continuous
 62
     7
100
AcDbLine
 10
74.5016011114
 20
122.7505231523
 30
0.0
 11
74.5016011114
 21
121.7734634263
 31
0.0
  0
LINE
  5
123
330
111
100
AcDbEntity
  8
6021520
  6
Continuous
 62
     7
100
AcDbLine
 10
52.8426011114
 20
121.7279634263
 30
0.0
 11
74.4106011114
 21
121.7279634263
 31
0.0
  0
LINE
  5
124
330
111
100
AcDbEntity
  8
6021520
  6
Continuous
 62
     7
100
AcDbLine
 10
52.7516011114
 20
121.7734634263
 30
0.0
 11
52.7516011114
 21
136.3574634263
 31
0.0
  0
ARC
  5
125
330
111
100
AcDbEntity
  8
6021520
  6
Continuous
 62
     7
100
AcDbCircle
 10
52.8426011114
 20
121.7734634263
 30
0.0
 40
0.0455000000000011
100
AcDbArc
 50
180.0
 51
270.0
  0
ARC
  5
126
330
111
100
AcDbEntity
  8
6021520
  6
Continuous
 62
     7
100
AcDbCircle
 10
52.8426011114
 20
136.3574634263
 30
0.0
 40
0.0455000000000011
100
AcDbArc
 50
90.0
 51
180.0
  0
ARC
  5
127
330
111
100
AcDbEntity
  8
6021520
  6
Continuous
 62
     7
100
AcDbCircle
 10
74.4106011114
 20
121.7734634263
 30
0.0
 40
0.0454999999999997
100
AcDbArc
 50
270.0
 51
0.0
  0
ARC
  5
128
330
111
100
AcDbEntity
  8
6021520
  6
Continuous
 62
     7
100
AcDbCircle
 10
74.4106011114
 20
122.7914634263
 30
0.0
 40
0.0454999999999997
100
AcDbArc
 50
0.0
 51
36.6595074881
  0
ARC
  5
129
330
111
100
AcDbEntity
  8
6021520
  6
Continuous
 62
     7
100
AcDbCircle
 10
53.8606011114
 20
136.3574634263
 30
0.0
 40
0.0909999999999883
100
AcDbArc
 50
13.0190335176
 51
90.0
  0
ARC
  5
12A
330
111
100
AcDbEntity
  8
6021520
  6
Continuous
 62
     7
100
AcDbCircle
 10
53.8606011114
 20
136.3574634263
 30
0.0
 40
0.0455000000000011
100
AcDbArc
 50
26.7789415925
 51
90.0
  0
LINE
  5
12B
330
111
100
AcDbEntity
  8
6021520
  6
Continuous
 62
     7
100
AcDbLine
 10
71.1168511114
 20
121.6364634263
 30
0.0
 11
72.3863511114
 21
121.6364634263
 31
0.0
  0
LINE
  5
12C
330
111
100
AcDbEntity
  8
6021520
  6
Continuous
 62
     7
100
AcDbLine
 10
71.1168511114
 20
121.6824634263
 30
0.0
 11
71.1168511114
 21
121.6364634263
 31
0.0
  0
LINE
  5
12D
330
111
100
AcDbEntity
  8
6021520
  6
Continuous
 62
     7
100
AcDbLine
 10
72.3863511114
 20
121.6364634263
 30
0.0
 11
72.3863511114
 21
121.6824634263
 31
0.0
  0
LINE
  5
12E
330
111
100
AcDbEntity
  8
6601635
  6
Continuous
 62
     7
100
AcDbLine
 10
52.9191011114
 20
136.2559634263
 30
0.0
 11
52.9191011114
 21
121.8499634263
 31
0.0
  0
LINE
  5
12F
330
111
100
AcDbEntity
  8
6601635
  6
Continuous
 62
     7
100
AcDbLine
 10
52.9191011114
 20
121.8499634263
 30
0.0
 11
74.3251011114
 21
121.8499634263
 31
0.0
  0
LINE
  5
130
330
111
100
AcDbEntity
  8
6601635
  6
Continuous
 62
     7
100
AcDbLine
 10
74.3251011114
 20
136.2559634263
 30
0.0
 11
52.9191011114
 21
136.2559634263
 31
0.0
  0
LINE
  5
131
330
111
100
AcDbEntity
  8
6601635
  6
Continuous
 62
     7
100
AcDbLine
 10
74.3251011114
 20
121.8499634263
 30
0.0
 11
74.3251011114
 21
136.2559634263
 31
0.0
  0
CIRCLE
  5
132
330
111
100
AcDbEntity
  8
6601635
  6
Continuous
 62
     7
100
AcDbCircle
 10
69.6721011114
 20
125.3029634263
 30
0.0
 40
0.5
  0
CIRCLE
  5
133
330
111
100
AcDbEntity
  8
6601635
  6
Continuous
 62
     7
100
AcDbCircle
 10
71.5721011114
 20
125.3029634263
 30
0.0
 40
0.635
  0
CIRCLE
  5
134
330
111
100
AcDbEntity
  8
6601635
  6
Continuous
 62
     7
100
AcDbCircle
 10
65.3471011114
 20
126.4779634263
 30
0.0
 40
0.0875
  0
CIRCLE
  5
135
330
111
100
AcDbEntity
  8
6601635
  6
Continuous
 62
     7
100
AcDbCircle
 10
65.3471011114
 20
133.9779634263
 30
0.0
 40
0.0875
  0
CIRCLE
  5
136
330
111
100
AcDbEntity
  8
6601635
  6
Continuous
 62
     7
100
AcDbCircle
 10
69.9471011114
 20
133.9779634263
 30
0.0
 40
0.0875
  0
CIRCLE
  5
137
330
111
100
AcDbEntity
  8
6601635
  6
Continuous
 62
     7
100
AcDbCircle
 10
69.9471011114
 20
126.4779634263
 30
0.0
 40
0.0875
  0
LINE
  5
138
330
111
100
AcDbEntity
  8
6601635
  6
Continuous
 62
     7
100
AcDbLine
 10
52.8582011114
 20
136.3779634263
 30
0.0
 11
52.8582011114
 21
136.3169634263
 31
0.0
  0
LINE
  5
139
330
111
100
AcDbEntity
  8
6601635
  6
Continuous
 62
     7
100
AcDbLine
 10
52.8582011114
 20
136.3169634263
 30
0.0
 11
52.9191011114
 21
136.2559634263
 31
0.0
  0
LINE
  5
13A
330
111
100
AcDbEntity
  8
6601635
  6
Continuous
 62
     7
100
AcDbLine
 10
74.3860011114
 20
136.3779634263
 30
0.0
 11
74.3860011114
 21
136.3169634263
 31
0.0
  0
LINE
  5
13B
330
111
100
AcDbEntity
  8
6601635
  6
Continuous
 62
     7
100
AcDbLine
 10
74.3860011114
 20
136.3169634263
 30
0.0
 11
74.3251011114
 21
136.2559634263
 31
0.0
  0
LINE
  5
13C
330
111
100
AcDbEntity
  8
6601635
  6
Continuous
 62
     7
100
AcDbLine
 10
52.8582011114
 20
136.3779634263
 30
0.0
 11
74.3860011114
 21
136.3779634263
 31
0.0
  0
LINE
  5
13D
330
111
100
AcDbEntity
  8
6601635
  6
Continuous
 62
     7
100
AcDbLine
 10
74.4471011114
 20
136.3168634263
 30
0.0
 11
74.3861011114
 21
136.3168634263
 31
0.0
  0
LINE
  5
13E
330
111
100
AcDbEntity
  8
6601635
  6
Continuous
 62
     7
100
AcDbLine
 10
74.3861011114
 20
136.3168634263
 30
0.0
 11
74.3251011114
 21
136.2559634263
 31
0.0
  0
LINE
  5
13F
330
111
100
AcDbEntity
  8
6601635
  6
Continuous
 62
     7
100
AcDbLine
 10
74.4471011114
 20
121.7890634263
 30
0.0
 11
74.3861011114
 21
121.7890634263
 31
0.0
  0
LINE
  5
140
330
111
100
AcDbEntity
  8
6601635
  6
Continuous
 62
     7
100
AcDbLine
 10
74.3861011114
 20
121.7890634263
 30
0.0
 11
74.3251011114
 21
121.8499634263
 31
0.0
  0
LINE
  5
141
330
111
100
AcDbEntity
  8
6601635
  6
Continuous
 62
     7
100
AcDbLine
 10
74.4471011114
 20
136.3168634263
 30
0.0
 11
74.4471011114
 21
121.7890634263
 31
0.0
  0
LINE
  5
142
330
111
100
AcDbEntity
  8
6601635
  6
Continuous
 62
     7
100
AcDbLine
 10
52.7971011114
 20
121.7890634263
 30
0.0
 11
52.8581011114
 21
121.7890634263
 31
0.0
  0
LINE
  5
143
330
111
100
AcDbEntity
  8
6601635
  6
Continuous
 62
     7
100
AcDbLine
 10
52.8581011114
 20
121.7890634263
 30
0.0
 11
52.9191011114
 21
121.8499634263
 31
0.0
  0
LINE
  5
144
330
111
100
AcDbEntity
  8
6601635
  6
Continuous
 62
     7
100
AcDbLine
 10
52.8581011114
 20
136.3168634263
 30
0.0
 11
52.9191011114
 21
136.2559634263
 31
0.0
  0
LINE
  5
145
330
111
100
AcDbEntity
  8
6601635
  6
Continuous
 62
     7
100
AcDbLine
 10
52.7971011114
 20
136.3168634263
 30
0.0
 11
52.8581011114
 21
136.3168634263
 31
0.0
  0
LINE
  5
146
330
111
100
AcDbEntity
  8
6601635
  6
Continuous
 62
     7
100
AcDbLine
 10
74.3860011114
 20
121.7279634263
 30
0.0
 11
74.3860011114
 21
121.7889634263
 31
0.0
  0
LINE
  5
147
330
111
100
AcDbEntity
  8
6601635
  6
Continuous
 62
     7
100
AcDbLine
 10
74.3860011114
 20
121.7889634263
 30
0.0
 11
74.3251011114
 21
121.8499634263
 31
0.0
  0
LINE
  5
148
330
111
100
AcDbEntity
  8
6601635
  6
Continuous
 62
     7
100
AcDbLine
 10
52.8582011114
 20
121.7279634263
 30
0.0
 11
52.8582011114
 21
121.7889634263
 31
0.0
  0
LINE
  5
149
330
111
100
AcDbEntity
  8
6601635
  6
Continuous
 62
     7
100
AcDbLine
 10
52.8582011114
 20
121.7889634263
 30
0.0
 11
52.9191011114
 21
121.8499634263
 31
0.0
  0
CIRCLE
  5
14A
330
111
100
AcDbEntity
  8
6601635
  6
Continuous
 62
     7
100
AcDbCircle
 10
57.6721011114
 20
135.7529634263
 30
0.0
 40
0.125
  0
CIRCLE
  5
14B
330
111
100
AcDbEntity
  8
6601635
  6
Continuous
 62
     7
100
AcDbCircle
 10
57.6721011114
 20
134.7529634263
 30
0.0
 40
0.125
  0
CIRCLE
  5
14C
330
111
100
AcDbEntity
  8
6601635
  6
Continuous
 62
     7
100
AcDbCircle
 10
55.0221011114
 20
134.7529634263
 30
0.0
 40
0.125
  0
CIRCLE
  5
14D
330
111
100
AcDbEntity
  8
6601635
  6
Continuous
 62
     7
100
AcDbCircle
 10
55.0221011114
 20
135.7529634263
 30
0.0
 40
0.125
  0
CIRCLE
  5
14E
330
111
100
AcDbEntity
  8
6601635
  6
Continuous
 62
     7
100
AcDbCircle
 10
73.3971011114
 20
134.7529634263
 30
0.0
 40
0.125
  0
CIRCLE
  5
14F
330
111
100
AcDbEntity
  8
6601635
  6
Continuous
 62
     7
100
AcDbCircle
 10
70.7471011114
 20
134.7529634263
 30
0.0
 40
0.125
  0
CIRCLE
  5
150
330
111
100
AcDbEntity
  8
6601635
  6
Continuous
 62
     7
100
AcDbCircle
 10
70.7471011114
 20
135.7529634263
 30
0.0
 40
0.125
  0
CIRCLE
  5
151
330
111
100
AcDbEntity
  8
6601635
  6
Continuous
 62
     7
100
AcDbCircle
 10
73.3971011114
 20
135.7529634263
 30
0.0
 40
0.125
  0
CIRCLE
  5
152
330
111
100
AcDbEntity
  8
6601635
  6
Continuous
 62
     7
100
AcDbCircle
 10
56.3471011114
 20
135.2529634263
 30
0.0
 40
0.24
  0
CIRCLE
  5
153
330
111
100
AcDbEntity
  8
6601635
  6
Continuous
 62
     7
100
AcDbCircle
 10
72.0721011114
 20
135.2529634263
 30
0.0
 40
0.24
  0
CIRCLE
  5
154
330
111
100
AcDbEntity
  8
6601635
  6
Continuous
 62
     7
100
AcDbCircle
 10
66.9971011114
 20
126.3529634263
 30
0.0
 40
0.125
  0
CIRCLE
  5
155
330
111
100
AcDbEntity
  8
6601635
  6
Continuous
 62
     7
100
AcDbCircle
 10
66.9971011114
 20
127.5029634263
 30
0.0
 40
0.125
  0
CIRCLE
  5
156
330
111
100
AcDbEntity
  8
6601635
  6
Continuous
 62
     7
100
AcDbCircle
 10
66.9971011114
 20
129.3029634263
 30
0.0
 40
0.125
  0
CIRCLE
  5
157
330
111
100
AcDbEntity
  8
6601635
  6
Continuous
 62
     7
100
AcDbCircle
 10
66.9971011114
 20
131.1029634263
 30
0.0
 40
0.125
  0
CIRCLE
  5
158
330
111
100
AcDbEntity
  8
6601635
  6
Continuous
 62
     7
100
AcDbCircle
 10
66.9971011114
 20
125.1529634263
 30
0.0
 40
0.125
  0
LINE
  5
159
330
111
100
AcDbEntity
  8
6301665
  6
Continuous
 62
     7
100
AcDbLine
 10
70.8544742924
 20
134.8169634263
 30
0.0
 11
70.6397279304
 21
134.8169634263
 31
0.0
  0
LINE
  5
15A
330
111
100
AcDbEntity
  8
6301665
  6
Continuous
 62
     7
100
AcDbLine
 10
70.6563872757
 20
135.6669634263
 30
0.0
 11
70.8378149472
 21
135.6669634263
 31
0.0
  0
LINE
  5
15B
330
111
100
AcDbEntity
  8
6301665
  6
Continuous
 62
     7
100
AcDbLine
 10
72.289567881
 20
135.3544927528
 30
0.0
 11
72.2687614722
 21
135.39053051
 31
0.0
  0
LINE
  5
15C
330
111
100
AcDbEntity
  8
6301665
  6
Continuous
 62
     7
100
AcDbLine
 10
72.0965640937
 20
135.4917134263
 30
0.0
 11
72.0476381292
 21
135.4917134263
 31
0.0
  0
LINE
  5
15D
330
111
100
AcDbEntity
  8
6301665
  6
Continuous
 62
     7
100
AcDbLine
 10
71.8794553641
 20
135.3960983836
 30
0.0
 11
71.8518197285
 21
135.3482320588
 31
0.0
  0
LINE
  5
15E
330
111
100
AcDbEntity
  8
6301665
  6
Continuous
 62
     7
100
AcDbLine
 10
71.8518197285
 20
135.1576947938
 30
0.0
 11
71.8794553641
 21
135.1098284689
 31
0.0
  0
LINE
  5
15F
330
111
100
AcDbEntity
  8
6301665
  6
Continuous
 62
     7
100
AcDbLine
 10
72.0476381292
 20
135.0142134263
 30
0.0
 11
72.0965640937
 21
135.0142134263
 31
0.0
  0
LINE
  5
160
330
111
100
AcDbEntity
  8
6301665
  6
Continuous
 62
     7
100
AcDbLine
 10
72.2687614722
 20
135.1153963426
 30
0.0
 11
72.289567881
 21
135.1514340998
 31
0.0
  0
LINE
  5
161
330
111
100
AcDbEntity
  8
6301665
  6
Continuous
 62
     7
100
AcDbLine
 10
55.1294742924
 20
134.8169634263
 30
0.0
 11
54.9147279304
 21
134.8169634263
 31
0.0
  0
LINE
  5
162
330
111
100
AcDbEntity
  8
6301665
  6
Continuous
 62
     7
100
AcDbLine
 10
54.9313872757
 20
135.6669634263
 30
0.0
 11
55.1128149472
 21
135.6669634263
 31
0.0
  0
LINE
  5
163
330
111
100
AcDbEntity
  8
6301665
  6
Continuous
 62
     7
100
AcDbLine
 10
56.5739540116
 20
135.3313072944
 30
0.0
 11
56.5283753415
 21
135.4102518668
 31
0.0
  0
LINE
  5
164
330
111
100
AcDbEntity
  8
6301665
  6
Continuous
 62
     7
100
AcDbLine
 10
56.3715640937
 20
135.4917134263
 30
0.0
 11
56.3226381292
 21
135.4917134263
 31
0.0
  0
LINE
  5
165
330
111
100
AcDbEntity
  8
6301665
  6
Continuous
 62
     7
100
AcDbLine
 10
56.3226381292
 20
135.0142134263
 30
0.0
 11
56.3715640937
 21
135.0142134263
 31
0.0
  0
LINE
  5
166
330
111
100
AcDbEntity
  8
6301665
  6
Continuous
 62
     7
100
AcDbLine
 10
56.5283753415
 20
135.0956749858
 30
0.0
 11
56.5739540116
 21
135.1746195582
 31
0.0
  0
LINE
  5
167
330
111
100
AcDbEntity
  8
6802420
  6
Continuous
 62
     7
100
AcDbLine
 10
74.4926011114
 20
136.3324634263
 30
0.0
 11
74.4926011114
 21
123.0373439743
 31
0.0
  0
ARC
  5
168
330
111
100
AcDbEntity
  8
6802420
  6
Continuous
 62
     7
100
AcDbCircle
 10
74.4016011114
 20
136.3324634263
 30
0.0
 40
0.0454999999999983
100
AcDbArc
 50
0.0
 51
90.0
  0
LINE
  5
169
330
111
100
AcDbEntity
  8
6802420
  6
Continuous
 62
     7
100
AcDbLine
 10
74.3860011114
 20
136.3779634263
 30
0.0
 11
74.4016011114
 21
136.3779634263
 31
0.0
  0
LINE
  5
16A
330
111
100
AcDbEntity
  8
6802420
  6
Continuous
 62
     7
100
AcDbLine
 10
74.4471011114
 20
136.3324634263
 30
0.0
 11
74.4471011114
 21
136.3168634263
 31
0.0
  0
LINE
  5
16B
330
111
100
AcDbEntity
  8
6802420
  6
Continuous
 62
     7
100
AcDbLine
 10
73.5745413854
 20
136.4234634263
 30
0.0
 11
74.4016011114
 21
136.4234634263
 31
0.0
  0
ARC
  5
16C
330
111
100
AcDbEntity
  8
6802420
  6
Continuous
 62
     7
100
AcDbCircle
 10
74.4016011114
 20
136.3324634263
 30
0.0
 40
0.0909999999999994
100
AcDbArc
 50
0.0
 51
90.0
  0
LINE
  5
16D
330
111
100
AcDbEntity
  8
6802420
  6
Continuous
 62
     7
100
AcDbLine
 10
74.4471011114
 20
123.0373439743
 30
0.0
 11
74.4926011114
 21
123.0373439743
 31
0.0
  0
LINE
  5
16E
330
111
100
AcDbEntity
  8
6802420
  6
Continuous
 62
     7
100
AcDbLine
 10
74.4926011114
 20
123.0373439743
 30
0.0
 11
74.4926011114
 21
123.0144634263
 31
0.0
  0
LINE
  5
16F
330
111
100
AcDbEntity
  8
6802420
  6
Continuous
 62
     7
100
AcDbLine
 10
73.5745413854
 20
136.3779634263
 30
0.0
 11
73.5745413854
 21
136.4234634263
 31
0.0
  0
LINE
  5
170
330
111
100
AcDbEntity
  8
6802420
  6
Continuous
 62
     7
100
AcDbLine
 10
73.3336011114
 20
136.4234634263
 30
0.0
 11
73.5745413854
 21
136.4234634263
 31
0.0
  0
ARC
  5
171
330
111
100
AcDbEntity
  8
6802420
  6
Continuous
 62
     7
100
AcDbCircle
 10
74.4016011114
 20
123.0144634263
 30
0.0
 40
0.0909999999999994
100
AcDbArc
 50
300.0
 51
0.0
  0
LINE
  5
172
330
111
100
AcDbEntity
  8
6802420
  6
Continuous
 62
     7
100
AcDbLine
 10
73.2881011114
 20
135.6917751921
 30
0.0
 11
73.2881011114
 21
135.8141516605
 31
0.0
  0
ARC
  5
173
330
111
100
AcDbEntity
  8
6802420
  6
Continuous
 62
     7
100
AcDbCircle
 10
73.3336011114
 20
136.3324634263
 30
0.0
 40
0.0909999999999994
100
AcDbArc
 50
90.0
 51
150.0
  0
LINE
  5
174
330
111
100
AcDbEntity
  8
ECOPOWERBOARD
  6
Continuous
 62
     7
100
AcDbLine
 10
66.9426148746
 20
126.2404634263
 30
0.0
 11
67.0515873482
 21
126.2404634263
 31
0.0
  0
LINE
  5
175
330
111
100
AcDbEntity
  8
ECOPOWERBOARD
  6
Continuous
 62
     7
100
AcDbLine
 10
66.8844468961
 20
129.2487967596
 30
0.0
 11
67.1097553267
 21
129.2487967596
 31
0.0
  0
LINE
  5
176
330
111
100
AcDbEntity
  8
1M_PHV_T_LOOSE_G
  6
Continuous
 62
     7
100
AcDbLine
 10
53.9516011114
 20
137.1984634263
 30
0.0
 11
53.9516011114
 21
136.3779634263
 31
0.0
  0
LINE
  5
177
330
111
100
AcDbEntity
  8
1M_PHV_T_LOOSE_G
  6
Continuous
 62
     7
100
AcDbLine
 10
72.7016011114
 20
137.1984634263
 30
0.0
 11
72.7016011114
 21
136.3779634263
 31
0.0
  0
LINE
  5
178
330
111
100
AcDbEntity
  8
1M_PHV_T_LOOSE_G
  6
Continuous
 62
     7
100
AcDbLine
 10
73.9616011114
 20
137.4984634263
 30
0.0
 11
52.6916011114
 21
137.4984634263
 31
0.0
  0
LINE
  5
179
330
111
100
AcDbEntity
  8
1M_PHV_T_LOOSE_G
  6
Continuous
 62
     7
100
AcDbLine
 10
52.6916011114
 20
137.4984634263
 30
0.0
 11
52.4266011114
 21
137.2334634263
 31
0.0
  0
LINE
  5
17A
330
111
100
AcDbEntity
  8
1M_PHV_T_LOOSE_G
  6
Continuous
 62
     7
100
AcDbLine
 10
74.2266011114
 20
137.2334634263
 30
0.0
 11
52.4266011114
 21
137.2334634263
 31
0.0
  0
LINE
  5
17B
330
111
100
AcDbEntity
  8
1M_PHV_T_LOOSE_G
  6
Continuous
 62
     7
100
AcDbLine
 10
52.4266011114
 20
137.2334634263
 30
0.0
 11
52.4266011114
 21
137.1984634263
 31
0.0
  0
LINE
  5
17C
330
111
100
AcDbEntity
  8
1M_PHV_T_LOOSE_G
  6
Continuous
 62
     7
100
AcDbLine
 10
73.9616011114
 20
137.4984634263
 30
0.0
 11
74.2266011114
 21
137.2334634263
 31
0.0
  0
LINE
  5
17D
330
111
100
AcDbEntity
  8
1M_PHV_T_LOOSE_G
  6
Continuous
 62
     7
100
AcDbLine
 10
74.2266011114
 20
137.2334634263
 30
0.0
 11
74.2266011114
 21
137.1984634263
 31
0.0
  0
LINE
  5
17E
330
111
100
AcDbEntity
  8
1M_PHV_T_LOOSE_G
  6
Continuous
 62
     7
100
AcDbLine
 10
74.2266011114
 20
137.1984634263
 30
0.0
 11
52.4266011114
 21
137.1984634263
 31
0.0
  0
CIRCLE
  5
17F
330
111
100
AcDbEntity
  8
1M_PHV_T_LOOSE_G
  6
Continuous
 62
     7
100
AcDbCircle
 10
54.7016011114
 20
136.6234634263
 30
0.0
 40
0.125
  0
CIRCLE
  5
180
330
111
100
AcDbEntity
  8
1M_PHV_T_LOOSE_G
  6
Continuous
 62
     7
100
AcDbCircle
 10
70.5016011114
 20
136.6234634263
 30
0.0
 40
0.125
  0
LINE
  5
181
330
111
100
AcDbEntity
  8
1M_T_R_LOOSE_GRI
  6
Continuous
 62
     7
100
AcDbLine
 10
54.7016011114
 20
136.4984634263
 30
0.0
 11
54.7016011114
 21
136.7484634263
 31
0.0
  0
ENDBLK
  5
183
330
111
100
AcDbEntity
  8
0
100
AcDbBlockEnd
  0
BLOCK
  5
340
330
184
100
AcDbEntity
  8
0
100
AcDbBlockBegin
  2
SE3
 70
     0
 10
0.0
 20
0.0
 30
0.0
  3
SE3
  1

  0
LINE
  5
186
330
184
100
AcDbEntity
  8
6021520
  6
Continuous
 62
     7
100
AcDbLine
 10
168.1679094684
 20
84.6374841795
 30
0.0
 11
168.1679094684
 21
85.0895439055
 31
0.0
  0
LINE
  5
187
330
184
100
AcDbEntity
  8
6021520
  6
Continuous
 62
     7
100
AcDbLine
 10
110.9179094684
 20
85.0895439055
 30
0.0
 11
110.9179094684
 21
84.6374841795
 31
0.0
  0
LINE
  5
188
330
184
100
AcDbEntity
  8
6021520
  6
Continuous
 62
     7
100
AcDbLine
 10
111.7929094684
 20
85.0895439055
 30
0.0
 11
110.9179094684
 21
85.0895439055
 31
0.0
  0
LINE
  5
189
330
184
100
AcDbEntity
  8
6021520
  6
Continuous
 62
     7
100
AcDbLine
 10
168.1679094684
 20
85.0895439055
 30
0.0
 11
166.9929094684
 21
85.0895439055
 31
0.0
  0
LINE
  5
18A
330
184
100
AcDbEntity
  8
6021520
  6
Continuous
 62
     7
100
AcDbLine
 10
113.3429094684
 20
106.2874841795
 30
0.0
 11
113.3429094684
 21
106.2964841795
 31
0.0
  0
LINE
  5
18B
330
184
100
AcDbEntity
  8
6021520
  6
Continuous
 62
     7
100
AcDbLine
 10
165.7429094684
 20
106.2964841795
 30
0.0
 11
165.7429094684
 21
106.2874841795
 31
0.0
  0
LINE
  5
18C
330
184
100
AcDbEntity
  8
6021520
  6
Continuous
 62
     7
100
AcDbLine
 10
113.3429094684
 20
106.2964841795
 30
0.0
 11
110.9179094684
 21
106.2964841795
 31
0.0
  0
LINE
  5
18D
330
184
100
AcDbEntity
  8
6021520
  6
Continuous
 62
     7
100
AcDbLine
 10
110.9179094684
 20
106.2964841795
 30
0.0
 11
110.9179094684
 21
106.2509841795
 31
0.0
  0
LINE
  5
18E
330
184
100
AcDbEntity
  8
6021520
  6
Continuous
 62
     7
100
AcDbLine
 10
166.7929094684
 20
106.2509841795
 30
0.0
 11
168.1679094684
 21
106.2509841795
 31
0.0
  0
LINE
  5
18F
330
184
100
AcDbEntity
  8
6021520
  6
Continuous
 62
     7
100
AcDbLine
 10
168.1679094684
 20
106.2964841795
 30
0.0
 11
168.1679094684
 21
106.2509841795
 31
0.0
  0
LINE
  5
190
330
184
100
AcDbEntity
  8
6021520
  6
Continuous
 62
     7
100
AcDbLine
 10
168.1679094684
 20
84.6374841795
 30
0.0
 11
168.1679094684
 21
84.5464841795
 31
0.0
  0
LINE
  5
191
330
184
100
AcDbEntity
  8
6021520
  6
Continuous
 62
     7
100
AcDbLine
 10
113.3429094684
 20
106.2964841795
 30
0.0
 11
165.7429094684
 21
106.2964841795
 31
0.0
  0
LINE
  5
192
330
184
100
AcDbEntity
  8
6021520
  6
Continuous
 62
     7
100
AcDbLine
 10
165.7429094684
 20
106.2964841795
 30
0.0
 11
168.1679094684
 21
106.2964841795
 31
0.0
  0
LINE
  5
193
330
184
100
AcDbEntity
  8
6021520
  6
Continuous
 62
     7
100
AcDbLine
 10
110.9179094684
 20
84.5464841795
 30
0.0
 11
110.9179094684
 21
84.6374841795
 31
0.0
  0
LINE
  5
194
330
184
100
AcDbEntity
  8
6021520
  6
Continuous
 62
     7
100
AcDbLine
 10
112.2929094684
 20
106.2509841795
 30
0.0
 11
110.9179094684
 21
106.2509841795
 31
0.0
  0
LINE
  5
195
330
184
100
AcDbEntity
  8
6021520
  6
Continuous
 62
     7
100
AcDbLine
 10
168.1679094684
 20
84.5464841795
 30
0.0
 11
166.9929094684
 21
84.5464841795
 31
0.0
  0
LINE
  5
196
330
184
100
AcDbEntity
  8
6021520
  6
Continuous
 62
     7
100
AcDbLine
 10
111.7929094684
 20
84.5464841795
 30
0.0
 11
110.9179094684
 21
84.5464841795
 31
0.0
  0
LINE
  5
197
330
184
100
AcDbEntity
  8
6021520
  6
Continuous
 62
     7
100
AcDbLine
 10
110.9179094684
 20
106.2509841795
 30
0.0
 11
110.9179094684
 21
106.2399841795
 31
0.0
  0
LINE
  5
198
330
184
100
AcDbEntity
  8
6021520
  6
Continuous
 62
     7
100
AcDbLine
 10
168.1679094684
 20
106.2399841795
 30
0.0
 11
168.1679094684
 21
106.2509841795
 31
0.0
  0
ARC
  5
199
330
184
100
AcDbEntity
  8
6021520
  6
Continuous
 62
     7
100
AcDbCircle
 10
114.2874094684
 20
88.1469841795
 30
0.0
 40
0.2
100
AcDbArc
 50
172.9635932564
 51
267.9942380651
  0
ARC
  5
19A
330
184
100
AcDbEntity
  8
6021520
  6
Continuous
 62
     7
100
AcDbCircle
 10
122.1984094684
 20
88.1469841795
 30
0.0
 40
0.2
100
AcDbArc
 50
0.0
 51
7.0364067436
  0
ARC
  5
19B
330
184
100
AcDbEntity
  8
6021520
  6
Continuous
 62
     7
100
AcDbCircle
 10
122.1984094684
 20
88.1469841795
 30
0.0
 40
0.2
100
AcDbArc
 50
172.9635932564
 51
0.0
  0
ARC
  5
19C
330
184
100
AcDbEntity
  8
6021520
  6
Continuous
 62
     7
100
AcDbCircle
 10
164.7984094684
 20
88.1469841795
 30
0.0
 40
0.2
100
AcDbArc
 50
0.0
 51
7.0364067436
  0
ARC
  5
19D
330
184
100
AcDbEntity
  8
6021520
  6
Continuous
 62
     7
100
AcDbCircle
 10
164.7984094684
 20
88.1469841795
 30
0.0
 40
0.2
100
AcDbArc
 50
172.9635932564
 51
0.0
  0
ARC
  5
19E
330
184
100
AcDbEntity
  8
6021520
  6
Continuous
 62
     7
100
AcDbCircle
 10
144.1594094684
 20
88.1469841795
 30
0.0
 40
0.2
100
AcDbArc
 50
0.0
 51
7.0364067436
  0
ARC
  5
19F
330
184
100
AcDbEntity
  8
6021520
  6
Continuous
 62
     7
100
AcDbCircle
 10
144.1594094684
 20
88.1469841795
 30
0.0
 40
0.2
100
AcDbArc
 50
172.9635932564
 51
0.0
  0
ARC
  5
1A0
330
184
100
AcDbEntity
  8
6021520
  6
Continuous
 62
     7
100
AcDbCircle
 10
121.0124094684
 20
96.6027514831
 30
0.0
 40
0.75
100
AcDbArc
 50
299.9519484904
 51
310.6804843661
  0
ARC
  5
1A1
330
184
100
AcDbEntity
  8
6021520
  6
Continuous
 62
     7
100
AcDbCircle
 10
121.0124094684
 20
96.6027514831
 30
0.0
 40
0.75
100
AcDbArc
 50
27.8325374301
 51
35.0980165026
  0
ARC
  5
1A2
330
184
100
AcDbEntity
  8
6021520
  6
Continuous
 62
     7
100
AcDbCircle
 10
120.5124094684
 20
96.6027514831
 30
0.0
 40
0.7499999999999993
100
AcDbArc
 50
144.9019834974
 51
152.1674625699
  0
ARC
  5
1A3
330
184
100
AcDbEntity
  8
6021520
  6
Continuous
 62
     7
100
AcDbCircle
 10
120.5124094684
 20
96.6027514831
 30
0.0
 40
0.7499999999999993
100
AcDbArc
 50
229.3195156339
 51
240.0480515096
  0
ARC
  5
1A4
330
184
100
AcDbEntity
  8
6021520
  6
Continuous
 62
     7
100
AcDbCircle
 10
121.0124094684
 20
98.5027514812
 30
0.0
 40
0.7500000000000011
100
AcDbArc
 50
312.8521541056
 51
321.3161193319
  0
ARC
  5
1A5
330
184
100
AcDbEntity
  8
6021520
  6
Continuous
 62
     7
100
AcDbCircle
 10
121.0124094684
 20
98.5027514812
 30
0.0
 40
0.7500000000000011
100
AcDbArc
 50
36.8858161829
 51
45.0975995801
  0
ARC
  5
1A6
330
184
100
AcDbEntity
  8
6021520
  6
Continuous
 62
     7
100
AcDbCircle
 10
120.5124094684
 20
98.5027514812
 30
0.0
 40
0.7500000000000007
100
AcDbArc
 50
134.9024004199
 51
143.1141838171
  0
ARC
  5
1A7
330
184
100
AcDbEntity
  8
6021520
  6
Continuous
 62
     7
100
AcDbCircle
 10
120.5124094684
 20
98.5027514812
 30
0.0
 40
0.7500000000000007
100
AcDbArc
 50
218.6838806681
 51
227.1478458944
  0
ARC
  5
1A8
330
184
100
AcDbEntity
  8
6021520
  6
Continuous
 62
     7
100
AcDbCircle
 10
115.3429094684
 20
103.5464841795
 30
0.0
 40
0.58925
100
AcDbArc
 50
43.6101606789
 51
136.3898393211
  0
ARC
  5
1A9
330
184
100
AcDbEntity
  8
6021520
  6
Continuous
 62
     7
100
AcDbCircle
 10
115.3429094684
 20
103.5464841795
 30
0.0
 40
0.58925
100
AcDbArc
 50
240.4295639321
 51
299.5704360679
  0
ARC
  5
1AA
330
184
100
AcDbEntity
  8
6021520
  6
Continuous
 62
     7
100
AcDbCircle
 10
117.8429094684
 20
103.5464841795
 30
0.0
 40
0.58925
100
AcDbArc
 50
43.6101606789
 51
136.3898393211
  0
ARC
  5
1AB
330
184
100
AcDbEntity
  8
6021520
  6
Continuous
 62
     7
100
AcDbCircle
 10
117.8429094684
 20
103.5464841795
 30
0.0
 40
0.58925
100
AcDbArc
 50
240.4295639321
 51
299.5704360679
  0
ARC
  5
1AC
330
184
100
AcDbEntity
  8
6021520
  6
Continuous
 62
     7
100
AcDbCircle
 10
161.8379094684
 20
88.7544841795
 30
0.0
 40
0.3574999999999995
100
AcDbArc
 50
90.0
 51
226.193220185
  0
LINE
  5
1AD
330
184
100
AcDbEntity
  8
6021520
  6
Continuous
 62
     7
100
AcDbLine
 10
161.8379094684
 20
89.1119841795
 30
0.0
 11
162.1229094684
 21
89.1119841795
 31
0.0
  0
ARC
  5
1AE
330
184
100
AcDbEntity
  8
6021520
  6
Continuous
 62
     7
100
AcDbCircle
 10
162.1229094684
 20
88.7544841795
 30
0.0
 40
0.3574999999999995
100
AcDbArc
 50
313.806779815
 51
90.0
  0
ARC
  5
1AF
330
184
100
AcDbEntity
  8
6021520
  6
Continuous
 62
     7
100
AcDbCircle
 10
116.8554094684
 20
90.6544841795
 30
0.0
 40
0.8750000000000001
100
AcDbArc
 50
342.8510287675
 51
0.0
  0
ARC
  5
1B0
330
184
100
AcDbEntity
  8
6021520
  6
Continuous
 62
     7
100
AcDbCircle
 10
116.8554094684
 20
90.6544841795
 30
0.0
 40
0.8750000000000001
100
AcDbArc
 50
221.7810376403
 51
318.2189623597
  0
ARC
  5
1B1
330
184
100
AcDbEntity
  8
6021520
  6
Continuous
 62
     7
100
AcDbCircle
 10
116.8554094684
 20
90.6544841795
 30
0.0
 40
0.8750000000000001
100
AcDbArc
 50
154.2964899358
 51
197.1489712325
  0
ARC
  5
1B2
330
184
100
AcDbEntity
  8
6021520
  6
Continuous
 62
     7
100
AcDbCircle
 10
116.8554094684
 20
90.6544841795
 30
0.0
 40
0.8750000000000001
100
AcDbArc
 50
0.0
 51
25.7035100642
  0
ARC
  5
1B3
330
184
100
AcDbEntity
  8
6021520
  6
Continuous
 62
     7
100
AcDbCircle
 10
116.8554094684
 20
86.8544841795
 30
0.0
 40
0.8750000000000001
100
AcDbArc
 50
342.8510287675
 51
0.0
  0
ARC
  5
1B4
330
184
100
AcDbEntity
  8
6021520
  6
Continuous
 62
     7
100
AcDbCircle
 10
116.8554094684
 20
86.8544841795
 30
0.0
 40
0.8750000000000001
100
AcDbArc
 50
221.7810376403
 51
318.2189623597
  0
ARC
  5
1B5
330
184
100
AcDbEntity
  8
6021520
  6
Continuous
 62
     7
100
AcDbCircle
 10
116.8554094684
 20
86.8544841795
 30
0.0
 40
0.8750000000000001
100
AcDbArc
 50
155.2014839254
 51
197.1489712325
  0
ARC
  5
1B6
330
184
100
AcDbEntity
  8
6021520
  6
Continuous
 62
     7
100
AcDbCircle
 10
116.8554094684
 20
86.8544841795
 30
0.0
 40
0.8750000000000001
100
AcDbArc
 50
52.2656851186
 51
127.7343148814
  0
ARC
  5
1B7
330
184
100
AcDbEntity
  8
6021520
  6
Continuous
 62
     7
100
AcDbCircle
 10
116.8554094684
 20
86.8544841795
 30
0.0
 40
0.8750000000000001
100
AcDbArc
 50
0.0
 51
24.7985160746
  0
ARC
  5
1B8
330
184
100
AcDbEntity
  8
6021520
  6
Continuous
 62
     7
100
AcDbCircle
 10
116.9629094684
 20
88.7544841795
 30
0.0
 40
0.3574999999999995
100
AcDbArc
 50
90.0
 51
226.193220185
  0
LINE
  5
1B9
330
184
100
AcDbEntity
  8
6021520
  6
Continuous
 62
     7
100
AcDbLine
 10
116.9629094684
 20
89.1119841795
 30
0.0
 11
117.2479094684
 21
89.1119841795
 31
0.0
  0
ARC
  5
1BA
330
184
100
AcDbEntity
  8
6021520
  6
Continuous
 62
     7
100
AcDbCircle
 10
117.2479094684
 20
88.7544841795
 30
0.0
 40
0.3574999999999995
100
AcDbArc
 50
313.806779815
 51
90.0
  0
ARC
  5
1BB
330
184
100
AcDbEntity
  8
6021520
  6
Continuous
 62
     7
100
AcDbCircle
 10
138.1679094684
 20
92.1419841795
 30
0.0
 40
0.1249999999999999
100
AcDbArc
 50
239.7687137449
 51
300.2312862551
  0
ARC
  5
1BC
330
184
100
AcDbEntity
  8
6021520
  6
Continuous
 62
     7
100
AcDbCircle
 10
140.9179094684
 20
92.1419841795
 30
0.0
 40
0.1249999999999999
100
AcDbArc
 50
239.7687137449
 51
300.2312862551
  0
ARC
  5
1BD
330
184
100
AcDbEntity
  8
6021520
  6
Continuous
 62
     7
100
AcDbCircle
 10
117.8429094684
 20
101.0464841795
 30
0.0
 40
0.7500000000000013
100
AcDbArc
 50
352.8334103608
 51
359.0450261262
  0
ARC
  5
1BE
330
184
100
AcDbEntity
  8
6021520
  6
Continuous
 62
     7
100
AcDbCircle
 10
117.8429094684
 20
101.0464841795
 30
0.0
 40
0.7500000000000013
100
AcDbArc
 50
180.9549738738
 51
187.1665896392
  0
LINE
  5
1BF
330
184
100
AcDbEntity
  8
6601630
  6
Continuous
 62
     7
100
AcDbLine
 10
110.8179094684
 20
106.1199841795
 30
0.0
 11
110.8179094684
 21
84.7139841795
 31
0.0
  0
LINE
  5
1C0
330
184
100
AcDbEntity
  8
6601630
  6
Continuous
 62
     7
100
AcDbLine
 10
110.9179094684
 20
84.6530841795
 30
0.0
 11
110.8342543691
 21
84.6530841795
 31
0.0
  0
ELLIPSE
  5
1C1
330
184
100
AcDbEntity
  8
6601630
  6
Continuous
 62
     7
100
AcDbEllipse
 10
110.9399094684
 20
84.7139841795
 30
0.0
 11
0.1219999999999999
 21
-4.973765201485983E-12
 31
0.0
210
0.0
220
0.0
230
1.0
 40
0.9983606557
 41
3.141592653589909
 42
3.665191429228878
  0
LINE
  5
1C2
330
184
100
AcDbEntity
  8
6601630
  6
Continuous
 62
     7
100
AcDbLine
 10
110.9399094684
 20
106.1808841795
 30
0.0
 11
110.8342543691
 21
106.1808841795
 31
0.0
  0
ELLIPSE
  5
1C3
330
184
100
AcDbEntity
  8
6601630
  6
Continuous
 62
     7
100
AcDbEllipse
 10
110.9399094684
 20
106.1199841795
 30
0.0
 11
0.1219999999999888
 21
1.582407298438031E-13
 31
0.0
210
0.0
220
0.0
230
1.0
 40
0.9983606557
 41
2.617993877990272
 42
3.141592653589793
  0
LINE
  5
1C4
330
184
100
AcDbEntity
  8
6601630
  6
Continuous
 62
     7
100
AcDbLine
 10
110.9399094684
 20
106.1808841795
 30
0.0
 11
112.2929094684
 21
106.1808841795
 31
0.0
  0
LINE
  5
1C5
330
184
100
AcDbEntity
  8
6601630
  6
Continuous
 62
     7
100
AcDbLine
 10
112.2929094684
 20
106.1809841795
 30
0.0
 11
110.9399094684
 21
106.1809841795
 31
0.0
  0
ARC
  5
1C6
330
184
100
AcDbEntity
  8
6601630
  6
Continuous
 62
     7
100
AcDbCircle
 10
110.9399094684
 20
106.1199841795
 30
0.0
 40
0.1220000000000013
100
AcDbArc
 50
90.0
 51
150.0
  0
ARC
  5
1C7
330
184
100
AcDbEntity
  8
6601630
  6
Continuous
 62
     7
100
AcDbCircle
 10
110.9399094684
 20
106.1199841795
 30
0.0
 40
0.1220000000000219
100
AcDbArc
 50
150.0
 51
180.0
  0
LINE
  5
1C8
330
184
100
AcDbEntity
  8
6601630
  6
Continuous
 62
     7
100
AcDbLine
 10
110.8342543691
 20
106.1809841795
 30
0.0
 11
110.9399094684
 21
106.1809841795
 31
0.0
  0
LINE
  5
1C9
330
184
100
AcDbEntity
  8
6601630
  6
Continuous
 62
     7
100
AcDbLine
 10
112.2929094684
 20
106.2419841795
 30
0.0
 11
110.9399094684
 21
106.2419841795
 31
0.0
  0
ARC
  5
1CA
330
184
100
AcDbEntity
  8
6601630
  6
Continuous
 62
     7
100
AcDbCircle
 10
110.9399094684
 20
84.7139841795
 30
0.0
 40
0.1220000000000002
100
AcDbArc
 50
180.0
 51
210.0
  0
LINE
  5
1CB
330
184
100
AcDbEntity
  8
6601630
  6
Continuous
 62
     7
100
AcDbLine
 10
110.8342543691
 20
84.6529841795
 30
0.0
 11
110.9179094684
 21
84.6529841795
 31
0.0
  0
ARC
  5
1CC
330
184
100
AcDbEntity
  8
6601630
  6
Continuous
 62
     7
100
AcDbCircle
 10
110.9399094684
 20
84.7139841795
 30
0.0
 40
0.1220000000000027
100
AcDbArc
 50
210.0
 51
259.6111421845
  0
ARC
  5
1CD
330
184
100
AcDbEntity
  8
6601630
  6
Continuous
 62
     7
100
AcDbCircle
 10
111.3179094684
 20
105.0169841795
 30
0.0
 40
0.125
100
AcDbArc
 50
260.5810692949
 51
0.0
  0
ARC
  5
1CE
330
184
100
AcDbEntity
  8
6601630
  6
Continuous
 62
     7
100
AcDbCircle
 10
111.3179094684
 20
105.0169841795
 30
0.0
 40
0.125
100
AcDbArc
 50
0.0
 51
49.3337343495
  0
LINE
  5
1CF
330
184
100
AcDbEntity
  8
6601630
  6
Continuous
 62
     7
100
AcDbLine
 10
111.7929094684
 20
88.6094841795
 30
0.0
 11
111.3179094684
 21
88.6094841795
 31
0.0
  0
LINE
  5
1D0
330
184
100
AcDbEntity
  8
6601630
  6
Continuous
 62
     7
100
AcDbLine
 10
111.3179094684
 20
88.6094841795
 30
0.0
 11
111.3179094684
 21
86.0169841795
 31
0.0
  0
LINE
  5
1D1
330
184
100
AcDbEntity
  8
6601630
  6
Continuous
 62
     7
100
AcDbLine
 10
111.3179094684
 20
86.0169841795
 30
0.0
 11
111.7929094684
 21
86.0169841795
 31
0.0
  0
LINE
  5
1D2
330
184
100
AcDbEntity
  8
6601630
  6
Continuous
 62
     7
100
AcDbLine
 10
111.7929094684
 20
104.3384841795
 30
0.0
 11
111.3179094684
 21
104.3384841795
 31
0.0
  0
LINE
  5
1D3
330
184
100
AcDbEntity
  8
6601630
  6
Continuous
 62
     7
100
AcDbLine
 10
111.3179094684
 20
104.3384841795
 30
0.0
 11
111.3179094684
 21
101.7459841795
 31
0.0
  0
LINE
  5
1D4
330
184
100
AcDbEntity
  8
6601630
  6
Continuous
 62
     7
100
AcDbLine
 10
111.3179094684
 20
101.7459841795
 30
0.0
 11
111.7929094684
 21
101.7459841795
 31
0.0
  0
CIRCLE
  5
1D5
330
184
100
AcDbEntity
  8
6601630
  6
Continuous
 62
     7
100
AcDbCircle
 10
111.3789094684
 20
101.0959841795
 30
0.0
 40
0.125
  0
CIRCLE
  5
1D6
330
184
100
AcDbEntity
  8
6601630
  6
Continuous
 62
     7
100
AcDbCircle
 10
111.3789094684
 20
104.9884841795
 30
0.0
 40
0.125
  0
CIRCLE
  5
1D7
330
184
100
AcDbEntity
  8
6601630
  6
Continuous
 62
     7
100
AcDbCircle
 10
111.3789094684
 20
85.3669841795
 30
0.0
 40
0.125
  0
CIRCLE
  5
1D8
330
184
100
AcDbEntity
  8
6601630
  6
Continuous
 62
     7
100
AcDbCircle
 10
111.3789094684
 20
89.2594841795
 30
0.0
 40
0.125
  0
LINE
  5
1D9
330
184
100
AcDbEntity
  8
6601635
  6
Continuous
 62
     7
100
AcDbLine
 10
168.2679094684
 20
106.1199841795
 30
0.0
 11
168.2679094684
 21
84.7139841795
 31
0.0
  0
LINE
  5
1DA
330
184
100
AcDbEntity
  8
6601635
  6
Continuous
 62
     7
100
AcDbLine
 10
168.1679094684
 20
84.6530841795
 30
0.0
 11
168.2515645677
 21
84.6530841795
 31
0.0
  0
ELLIPSE
  5
1DB
330
184
100
AcDbEntity
  8
6601635
  6
Continuous
 62
     7
100
AcDbEllipse
 10
168.1459094684
 20
84.7139841795
 30
0.0
 11
-0.1220000000000164
 21
1.731913969580526E-12
 31
0.0
210
0.0
220
0.0
230
1.0
 40
0.9983606557
 41
2.617993878005348
 42
3.141592653589793
  0
LINE
  5
1DC
330
184
100
AcDbEntity
  8
6601635
  6
Continuous
 62
     7
100
AcDbLine
 10
168.1459094684
 20
106.1808841795
 30
0.0
 11
168.2515645677
 21
106.1808841795
 31
0.0
  0
ELLIPSE
  5
1DD
330
184
100
AcDbEntity
  8
6601635
  6
Continuous
 62
     7
100
AcDbEllipse
 10
168.1459094684
 20
106.1199841795
 30
0.0
 11
-0.1219999999999975
 21
7.507543715680439E-13
 31
0.0
210
0.0
220
0.0
230
1.0
 40
0.9983606557
 41
3.141592653589774
 42
3.66519142919382
  0
LINE
  5
1DE
330
184
100
AcDbEntity
  8
6601635
  6
Continuous
 62
     7
100
AcDbLine
 10
168.1459094684
 20
106.1808841795
 30
0.0
 11
166.7929094684
 21
106.1808841795
 31
0.0
  0
LINE
  5
1DF
330
184
100
AcDbEntity
  8
6601635
  6
Continuous
 62
     7
100
AcDbLine
 10
166.7929094684
 20
106.1809841795
 30
0.0
 11
168.1459094684
 21
106.1809841795
 31
0.0
  0
ARC
  5
1E0
330
184
100
AcDbEntity
  8
6601635
  6
Continuous
 62
     7
100
AcDbCircle
 10
168.1459094684
 20
106.1199841795
 30
0.0
 40
0.1220000000000013
100
AcDbArc
 50
30.0
 51
90.0
  0
ARC
  5
1E1
330
184
100
AcDbEntity
  8
6601635
  6
Continuous
 62
     7
100
AcDbCircle
 10
168.1459094684
 20
106.1199841795
 30
0.0
 40
0.1219999999999976
100
AcDbArc
 50
0.0
 51
30.0
  0
LINE
  5
1E2
330
184
100
AcDbEntity
  8
6601635
  6
Continuous
 62
     7
100
AcDbLine
 10
168.2515645677
 20
106.1809841795
 30
0.0
 11
168.1459094684
 21
106.1809841795
 31
0.0
  0
LINE
  5
1E3
330
184
100
AcDbEntity
  8
6601635
  6
Continuous
 62
     7
100
AcDbLine
 10
166.7929094684
 20
106.2419841795
 30
0.0
 11
168.1459094684
 21
106.2419841795
 31
0.0
  0
ARC
  5
1E4
330
184
100
AcDbEntity
  8
6601635
  6
Continuous
 62
     7
100
AcDbCircle
 10
168.1459094684
 20
84.7139841795
 30
0.0
 40
0.1220000000000007
100
AcDbArc
 50
330.0
 51
0.0
  0
LINE
  5
1E5
330
184
100
AcDbEntity
  8
6601635
  6
Continuous
 62
     7
100
AcDbLine
 10
168.2515645677
 20
84.6529841795
 30
0.0
 11
168.1679094684
 21
84.6529841795
 31
0.0
  0
ARC
  5
1E6
330
184
100
AcDbEntity
  8
6601635
  6
Continuous
 62
     7
100
AcDbCircle
 10
168.1459094684
 20
84.7139841795
 30
0.0
 40
0.1220000000000027
100
AcDbArc
 50
280.3888578155
 51
330.0
  0
ARC
  5
1E7
330
184
100
AcDbEntity
  8
6601635
  6
Continuous
 62
     7
100
AcDbCircle
 10
167.7679094684
 20
105.0169841795
 30
0.0
 40
0.125
100
AcDbArc
 50
130.666265648
 51
279.4189307076
  0
LINE
  5
1E8
330
184
100
AcDbEntity
  8
6601635
  6
Continuous
 62
     7
100
AcDbLine
 10
166.9929094684
 20
88.6094841795
 30
0.0
 11
167.7679094684
 21
88.6094841795
 31
0.0
  0
LINE
  5
1E9
330
184
100
AcDbEntity
  8
6601635
  6
Continuous
 62
     7
100
AcDbLine
 10
167.7679094684
 20
88.6094841795
 30
0.0
 11
167.7679094684
 21
86.0169841795
 31
0.0
  0
LINE
  5
1EA
330
184
100
AcDbEntity
  8
6601635
  6
Continuous
 62
     7
100
AcDbLine
 10
167.7679094684
 20
86.0169841795
 30
0.0
 11
166.9929094684
 21
86.0169841795
 31
0.0
  0
LINE
  5
1EB
330
184
100
AcDbEntity
  8
6601635
  6
Continuous
 62
     7
100
AcDbLine
 10
166.9929094684
 20
104.3384841795
 30
0.0
 11
167.7679094684
 21
104.3384841795
 31
0.0
  0
LINE
  5
1EC
330
184
100
AcDbEntity
  8
6601635
  6
Continuous
 62
     7
100
AcDbLine
 10
167.7679094684
 20
104.3384841795
 30
0.0
 11
167.7679094684
 21
101.7459841795
 31
0.0
  0
LINE
  5
1ED
330
184
100
AcDbEntity
  8
6601635
  6
Continuous
 62
     7
100
AcDbLine
 10
167.7679094684
 20
101.7459841795
 30
0.0
 11
166.9929094684
 21
101.7459841795
 31
0.0
  0
CIRCLE
  5
1EE
330
184
100
AcDbEntity
  8
6601635
  6
Continuous
 62
     7
100
AcDbCircle
 10
167.7069094684
 20
101.0959841795
 30
0.0
 40
0.125
  0
CIRCLE
  5
1EF
330
184
100
AcDbEntity
  8
6601635
  6
Continuous
 62
     7
100
AcDbCircle
 10
167.7069094684
 20
104.9884841795
 30
0.0
 40
0.125
  0
CIRCLE
  5
1F0
330
184
100
AcDbEntity
  8
6601635
  6
Continuous
 62
     7
100
AcDbCircle
 10
167.7069094684
 20
85.3669841795
 30
0.0
 40
0.125
  0
CIRCLE
  5
1F1
330
184
100
AcDbEntity
  8
6601635
  6
Continuous
 62
     7
100
AcDbCircle
 10
167.7069094684
 20
89.2594841795
 30
0.0
 40
0.125
  0
ARC
  5
1F2
330
184
100
AcDbEntity
  8
6301665
  6
Continuous
 62
     7
100
AcDbCircle
 10
112.0679094684
 20
103.0422341795
 30
0.0
 40
0.3
100
AcDbArc
 50
156.4435356909
 51
203.5564643091
  0
ARC
  5
1F3
330
184
100
AcDbEntity
  8
6301665
  6
Continuous
 62
     7
100
AcDbCircle
 10
112.0679094684
 20
87.3132341795
 30
0.0
 40
0.3
100
AcDbArc
 50
156.4435356909
 51
203.5564643091
  0
ARC
  5
1F4
330
184
100
AcDbEntity
  8
6301665
  6
Continuous
 62
     7
100
AcDbCircle
 10
167.0179094684
 20
103.0422341795
 30
0.0
 40
0.3
100
AcDbArc
 50
0.0
 51
94.7801918472
  0
ARC
  5
1F5
330
184
100
AcDbEntity
  8
6301665
  6
Continuous
 62
     7
100
AcDbCircle
 10
167.0179094684
 20
103.0422341795
 30
0.0
 40
0.3
100
AcDbArc
 50
265.2198081528
 51
0.0
  0
ARC
  5
1F6
330
184
100
AcDbEntity
  8
6301665
  6
Continuous
 62
     7
100
AcDbCircle
 10
167.0179094684
 20
87.3132341795
 30
0.0
 40
0.3
100
AcDbArc
 50
0.0
 51
94.7801918472
  0
ARC
  5
1F7
330
184
100
AcDbEntity
  8
6301665
  6
Continuous
 62
     7
100
AcDbCircle
 10
167.0179094684
 20
87.3132341795
 30
0.0
 40
0.3
100
AcDbArc
 50
265.2198081528
 51
0.0
  0
LINE
  5
1F8
330
184
100
AcDbEntity
  8
6802420
  6
Continuous
 62
     7
100
AcDbLine
 10
112.2929094684
 20
106.2874841795
 30
0.0
 11
166.7929094684
 21
106.2874841795
 31
0.0
  0
LINE
  5
1F9
330
184
100
AcDbEntity
  8
6802420
  6
Continuous
 62
     7
100
AcDbLine
 10
166.7929094684
 20
106.0214841795
 30
0.0
 11
166.7929094684
 21
106.1964841795
 31
0.0
  0
LINE
  5
1FA
330
184
100
AcDbEntity
  8
6802420
  6
Continuous
 62
     7
100
AcDbLine
 10
112.2929094684
 20
106.1964841795
 30
0.0
 11
112.2929094684
 21
106.0214841795
 31
0.0
  0
LINE
  5
1FB
330
184
100
AcDbEntity
  8
6802420
  6
Continuous
 62
     7
100
AcDbLine
 10
166.7929094684
 20
106.1964841795
 30
0.0
 11
166.7929094684
 21
106.2874841795
 31
0.0
  0
LINE
  5
1FC
330
184
100
AcDbEntity
  8
6802420
  6
Continuous
 62
     7
100
AcDbLine
 10
112.2929094684
 20
106.2874841795
 30
0.0
 11
112.2929094684
 21
106.1964841795
 31
0.0
  0
LINE
  5
1FD
330
184
100
AcDbEntity
  8
ECOPOWERBOARD
  6
Continuous
 62
     7
100
AcDbLine
 10
111.4789094684
 20
101.1709841795
 30
0.0
 11
111.4789094684
 21
101.0209841795
 31
0.0
  0
LINE
  5
1FE
330
184
100
AcDbEntity
  8
ECOPOWERBOARD
  6
Continuous
 62
     7
100
AcDbLine
 10
113.5429094684
 20
101.3544841795
 30
0.0
 11
113.3929094684
 21
101.3544841795
 31
0.0
  0
LINE
  5
1FF
330
184
100
AcDbEntity
  8
ECOPOWERBOARD
  6
Continuous
 62
     7
100
AcDbLine
 10
113.5429094684
 20
99.7044841795
 30
0.0
 11
113.3929094684
 21
99.7044841795
 31
0.0
  0
LINE
  5
200
330
184
100
AcDbEntity
  8
ECOPOWERBOARD
  6
Continuous
 62
     7
100
AcDbLine
 10
113.5789094684
 20
101.0339841795
 30
0.0
 11
113.5789094684
 21
100.9529181624
 31
0.0
  0
LINE
  5
201
330
184
100
AcDbEntity
  8
ECOPOWERBOARD
  6
Continuous
 62
     7
100
AcDbLine
 10
113.5789094684
 20
100.0339841795
 30
0.0
 11
113.5789094684
 21
99.9529181624
 31
0.0
  0
LINE
  5
202
330
184
100
AcDbEntity
  8
1M_PHV_T_LOOSE_G
  6
Continuous
 62
     7
100
AcDbLine
 10
113.3929094684
 20
85.8214841795
 30
0.0
 11
113.3929094684
 21
104.4214841795
 31
0.0
  0
LINE
  5
203
330
184
100
AcDbEntity
  8
1M_PHV_T_LOOSE_G
  6
Continuous
 62
     7
100
AcDbLine
 10
165.3929094684
 20
85.8214841795
 30
0.0
 11
113.3929094684
 21
85.8214841795
 31
0.0
  0
LINE
  5
204
330
184
100
AcDbEntity
  8
1M_PHV_T_LOOSE_G
  6
Continuous
 62
     7
100
AcDbLine
 10
165.3929094684
 20
104.4214841795
 30
0.0
 11
165.3929094684
 21
85.8214841795
 31
0.0
  0
LINE
  5
205
330
184
100
AcDbEntity
  8
1M_PHV_T_LOOSE_G
  6
Continuous
 62
     7
100
AcDbLine
 10
113.3929094684
 20
104.4214841795
 30
0.0
 11
165.3929094684
 21
104.4214841795
 31
0.0
  0
LINE
  5
206
330
184
100
AcDbEntity
  8
1M_PHV_T_LOOSE_G
  6
Continuous
 62
     7
100
AcDbLine
 10
166.7279094684
 20
105.7564841795
 30
0.0
 11
166.7279094684
 21
84.4864841795
 31
0.0
  0
LINE
  5
207
330
184
100
AcDbEntity
  8
1M_PHV_T_LOOSE_G
  6
Continuous
 62
     7
100
AcDbLine
 10
166.7279094684
 20
84.4864841795
 30
0.0
 11
166.9929094684
 21
84.2214841795
 31
0.0
  0
LINE
  5
208
330
184
100
AcDbEntity
  8
1M_PHV_T_LOOSE_G
  6
Continuous
 62
     7
100
AcDbLine
 10
166.9929094684
 20
106.0214841795
 30
0.0
 11
166.9929094684
 21
84.2214841795
 31
0.0
  0
LINE
  5
209
330
184
100
AcDbEntity
  8
1M_PHV_T_LOOSE_G
  6
Continuous
 62
     7
100
AcDbLine
 10
166.7279094684
 20
84.4864841795
 30
0.0
 11
112.0579094684
 21
84.4864841795
 31
0.0
  0
LINE
  5
20A
330
184
100
AcDbEntity
  8
1M_PHV_T_LOOSE_G
  6
Continuous
 62
     7
100
AcDbLine
 10
112.0579094684
 20
84.4864841795
 30
0.0
 11
111.7929094684
 21
84.2214841795
 31
0.0
  0
LINE
  5
20B
330
184
100
AcDbEntity
  8
1M_PHV_T_LOOSE_G
  6
Continuous
 62
     7
100
AcDbLine
 10
166.9929094684
 20
84.2214841795
 30
0.0
 11
111.7929094684
 21
84.2214841795
 31
0.0
  0
LINE
  5
20C
330
184
100
AcDbEntity
  8
1M_PHV_T_LOOSE_G
  6
Continuous
 62
     7
100
AcDbLine
 10
112.0579094684
 20
105.7564841795
 30
0.0
 11
166.7279094684
 21
105.7564841795
 31
0.0
  0
LINE
  5
20D
330
184
100
AcDbEntity
  8
1M_PHV_T_LOOSE_G
  6
Continuous
 62
     7
100
AcDbLine
 10
166.7279094684
 20
105.7564841795
 30
0.0
 11
166.9929094684
 21
106.0214841795
 31
0.0
  0
LINE
  5
20E
330
184
100
AcDbEntity
  8
1M_PHV_T_LOOSE_G
  6
Continuous
 62
     7
100
AcDbLine
 10
111.7929094684
 20
106.0214841795
 30
0.0
 11
166.9929094684
 21
106.0214841795
 31
0.0
  0
LINE
  5
20F
330
184
100
AcDbEntity
  8
1M_PHV_T_LOOSE_G
  6
Continuous
 62
     7
100
AcDbLine
 10
112.0579094684
 20
84.4864841795
 30
0.0
 11
112.0579094684
 21
105.7564841795
 31
0.0
  0
LINE
  5
210
330
184
100
AcDbEntity
  8
1M_PHV_T_LOOSE_G
  6
Continuous
 62
     7
100
AcDbLine
 10
112.0579094684
 20
105.7564841795
 30
0.0
 11
111.7929094684
 21
106.0214841795
 31
0.0
  0
LINE
  5
211
330
184
100
AcDbEntity
  8
1M_PHV_T_LOOSE_G
  6
Continuous
 62
     7
100
AcDbLine
 10
111.7929094684
 20
84.2214841795
 30
0.0
 11
111.7929094684
 21
106.0214841795
 31
0.0
  0
LINE
  5
212
330
184
100
AcDbEntity
  8
1M_T_R_LOOSE_GRI
  6
Continuous
 62
     7
100
AcDbLine
 10
113.5429094684
 20
87.5464841795
 30
0.0
 11
113.5429094684
 21
87.2214841795
 31
0.0
  0
LINE
  5
213
330
184
100
AcDbEntity
  8
1M_T_R_LOOSE_GRI
  6
Continuous
 62
     7
100
AcDbLine
 10
165.2429094684
 20
87.5464841795
 30
0.0
 11
165.2429094684
 21
87.2214841795
 31
0.0
  0
LINE
  5
214
330
184
100
AcDbEntity
  8
1M_T_R_LOOSE_GRI
  6
Continuous
 62
     7
100
AcDbLine
 10
113.5429094684
 20
87.2214841795
 30
0.0
 11
165.2429094684
 21
87.2214841795
 31
0.0
  0
LINE
  5
215
330
184
100
AcDbEntity
  8
1M_T_R_LOOSE_GRI
  6
Continuous
 62
     7
100
AcDbLine
 10
113.5429094684
 20
87.5464841795
 30
0.0
 11
165.2429094684
 21
87.5464841795
 31
0.0
  0
LINE
  5
216
330
184
100
AcDbEntity
  8
1M_T_R_LOOSE_GRI
  6
Continuous
 62
     7
100
AcDbLine
 10
113.5429094684
 20
88.4964841795
 30
0.0
 11
113.5429094684
 21
88.1714841795
 31
0.0
  0
LINE
  5
217
330
184
100
AcDbEntity
  8
1M_T_R_LOOSE_GRI
  6
Continuous
 62
     7
100
AcDbLine
 10
165.2429094684
 20
88.4964841795
 30
0.0
 11
165.2429094684
 21
88.1714841795
 31
0.0
  0
LINE
  5
218
330
184
100
AcDbEntity
  8
1M_T_R_LOOSE_GRI
  6
Continuous
 62
     7
100
AcDbLine
 10
113.5429094684
 20
88.1714841795
 30
0.0
 11
165.2429094684
 21
88.1714841795
 31
0.0
  0
LINE
  5
219
330
184
100
AcDbEntity
  8
1M_T_R_LOOSE_GRI
  6
Continuous
 62
     7
100
AcDbLine
 10
113.5429094684
 20
88.4964841795
 30
0.0
 11
165.2429094684
 21
88.4964841795
 31
0.0
  0
LINE
  5
21A
330
184
100
AcDbEntity
  8
1M_T_R_LOOSE_GRI
  6
Continuous
 62
     7
100
AcDbLine
 10
113.5429094684
 20
89.4464841795
 30
0.0
 11
113.5429094684
 21
89.1214841795
 31
0.0
  0
LINE
  5
21B
330
184
100
AcDbEntity
  8
1M_T_R_LOOSE_GRI
  6
Continuous
 62
     7
100
AcDbLine
 10
165.2429094684
 20
89.4464841795
 30
0.0
 11
165.2429094684
 21
89.1214841795
 31
0.0
  0
LINE
  5
21C
330
184
100
AcDbEntity
  8
1M_T_R_LOOSE_GRI
  6
Continuous
 62
     7
100
AcDbLine
 10
113.5429094684
 20
89.1214841795
 30
0.0
 11
165.2429094684
 21
89.1214841795
 31
0.0
  0
LINE
  5
21D
330
184
100
AcDbEntity
  8
1M_T_R_LOOSE_GRI
  6
Continuous
 62
     7
100
AcDbLine
 10
113.5429094684
 20
89.4464841795
 30
0.0
 11
165.2429094684
 21
89.4464841795
 31
0.0
  0
LINE
  5
21E
330
184
100
AcDbEntity
  8
1M_T_R_LOOSE_GRI
  6
Continuous
 62
     7
100
AcDbLine
 10
113.5429094684
 20
90.3964841795
 30
0.0
 11
113.5429094684
 21
90.0714841795
 31
0.0
  0
LINE
  5
21F
330
184
100
AcDbEntity
  8
1M_T_R_LOOSE_GRI
  6
Continuous
 62
     7
100
AcDbLine
 10
165.2429094684
 20
90.3964841795
 30
0.0
 11
165.2429094684
 21
90.0714841795
 31
0.0
  0
LINE
  5
220
330
184
100
AcDbEntity
  8
1M_T_R_LOOSE_GRI
  6
Continuous
 62
     7
100
AcDbLine
 10
113.5429094684
 20
90.0714841795
 30
0.0
 11
165.2429094684
 21
90.0714841795
 31
0.0
  0
LINE
  5
221
330
184
100
AcDbEntity
  8
1M_T_R_LOOSE_GRI
  6
Continuous
 62
     7
100
AcDbLine
 10
113.5429094684
 20
90.3964841795
 30
0.0
 11
165.2429094684
 21
90.3964841795
 31
0.0
  0
LINE
  5
222
330
184
100
AcDbEntity
  8
1M_T_R_LOOSE_GRI
  6
Continuous
 62
     7
100
AcDbLine
 10
165.2429094684
 20
102.0339841795
 30
0.0
 11
165.2429094684
 21
102.7029181624
 31
0.0
  0
LINE
  5
223
330
184
100
AcDbEntity
  8
1M_T_R_LOOSE_GRI
  6
Continuous
 62
     7
100
AcDbLine
 10
165.2429094684
 20
102.7029181624
 30
0.0
 11
165.2429094684
 21
102.9529181624
 31
0.0
  0
LINE
  5
224
330
184
100
AcDbEntity
  8
1M_T_R_LOOSE_GRI
  6
Continuous
 62
     7
100
AcDbLine
 10
113.5429094684
 20
102.7029181624
 30
0.0
 11
113.5429094684
 21
102.9529181624
 31
0.0
  0
LINE
  5
225
330
184
100
AcDbEntity
  8
1M_T_R_LOOSE_GRI
  6
Continuous
 62
     7
100
AcDbLine
 10
113.5429094684
 20
102.0339841795
 30
0.0
 11
113.5429094684
 21
102.7029181624
 31
0.0
  0
LINE
  5
226
330
184
100
AcDbEntity
  8
1M_T_R_LOOSE_GRI
  6
Continuous
 62
     7
100
AcDbLine
 10
165.2429094684
 20
102.9529181624
 30
0.0
 11
113.5429094684
 21
102.9529181624
 31
0.0
  0
LINE
  5
227
330
184
100
AcDbEntity
  8
1M_T_R_LOOSE_GRI
  6
Continuous
 62
     7
100
AcDbLine
 10
165.2429094684
 20
102.7029181624
 30
0.0
 11
113.5429094684
 21
102.7029181624
 31
0.0
  0
LINE
  5
228
330
184
100
AcDbEntity
  8
1M_T_R_LOOSE_GRI
  6
Continuous
 62
     7
100
AcDbLine
 10
165.2429094684
 20
102.0339841795
 30
0.0
 11
113.5429094684
 21
102.0339841795
 31
0.0
  0
LINE
  5
229
330
184
100
AcDbEntity
  8
1M_T_R_LOOSE_GRI
  6
Continuous
 62
     7
100
AcDbLine
 10
165.2429094684
 20
101.0339841795
 30
0.0
 11
165.2429094684
 21
101.7029181624
 31
0.0
  0
LINE
  5
22A
330
184
100
AcDbEntity
  8
1M_T_R_LOOSE_GRI
  6
Continuous
 62
     7
100
AcDbLine
 10
165.2429094684
 20
101.7029181624
 30
0.0
 11
165.2429094684
 21
101.9529181624
 31
0.0
  0
LINE
  5
22B
330
184
100
AcDbEntity
  8
1M_T_R_LOOSE_GRI
  6
Continuous
 62
     7
100
AcDbLine
 10
113.5429094684
 20
101.7029181624
 30
0.0
 11
113.5429094684
 21
101.9529181624
 31
0.0
  0
LINE
  5
22C
330
184
100
AcDbEntity
  8
1M_T_R_LOOSE_GRI
  6
Continuous
 62
     7
100
AcDbLine
 10
113.5429094684
 20
101.0339841795
 30
0.0
 11
113.5429094684
 21
101.7029181624
 31
0.0
  0
LINE
  5
22D
330
184
100
AcDbEntity
  8
1M_T_R_LOOSE_GRI
  6
Continuous
 62
     7
100
AcDbLine
 10
165.2429094684
 20
101.9529181624
 30
0.0
 11
113.5429094684
 21
101.9529181624
 31
0.0
  0
LINE
  5
22E
330
184
100
AcDbEntity
  8
1M_T_R_LOOSE_GRI
  6
Continuous
 62
     7
100
AcDbLine
 10
165.2429094684
 20
101.7029181624
 30
0.0
 11
113.5429094684
 21
101.7029181624
 31
0.0
  0
LINE
  5
22F
330
184
100
AcDbEntity
  8
1M_T_R_LOOSE_GRI
  6
Continuous
 62
     7
100
AcDbLine
 10
165.2429094684
 20
101.0339841795
 30
0.0
 11
113.5429094684
 21
101.0339841795
 31
0.0
  0
LINE
  5
230
330
184
100
AcDbEntity
  8
1M_T_R_LOOSE_GRI
  6
Continuous
 62
     7
100
AcDbLine
 10
165.2429094684
 20
100.0339841795
 30
0.0
 11
165.2429094684
 21
100.7029181624
 31
0.0
  0
LINE
  5
231
330
184
100
AcDbEntity
  8
1M_T_R_LOOSE_GRI
  6
Continuous
 62
     7
100
AcDbLine
 10
165.2429094684
 20
100.7029181624
 30
0.0
 11
165.2429094684
 21
100.9529181624
 31
0.0
  0
LINE
  5
232
330
184
100
AcDbEntity
  8
1M_T_R_LOOSE_GRI
  6
Continuous
 62
     7
100
AcDbLine
 10
113.5429094684
 20
100.7029181624
 30
0.0
 11
113.5429094684
 21
100.9529181624
 31
0.0
  0
LINE
  5
233
330
184
100
AcDbEntity
  8
1M_T_R_LOOSE_GRI
  6
Continuous
 62
     7
100
AcDbLine
 10
113.5429094684
 20
100.0339841795
 30
0.0
 11
113.5429094684
 21
100.7029181624
 31
0.0
  0
LINE
  5
234
330
184
100
AcDbEntity
  8
1M_T_R_LOOSE_GRI
  6
Continuous
 62
     7
100
AcDbLine
 10
165.2429094684
 20
100.9529181624
 30
0.0
 11
113.5429094684
 21
100.9529181624
 31
0.0
  0
LINE
  5
235
330
184
100
AcDbEntity
  8
1M_T_R_LOOSE_GRI
  6
Continuous
 62
     7
100
AcDbLine
 10
165.2429094684
 20
100.7029181624
 30
0.0
 11
113.5429094684
 21
100.7029181624
 31
0.0
  0
LINE
  5
236
330
184
100
AcDbEntity
  8
1M_T_R_LOOSE_GRI
  6
Continuous
 62
     7
100
AcDbLine
 10
165.2429094684
 20
100.0339841795
 30
0.0
 11
113.5429094684
 21
100.0339841795
 31
0.0
  0
LINE
  5
237
330
184
100
AcDbEntity
  8
1M_T_R_LOOSE_GRI
  6
Continuous
 62
     7
100
AcDbLine
 10
165.2429094684
 20
99.0339841795
 30
0.0
 11
165.2429094684
 21
99.7029181624
 31
0.0
  0
LINE
  5
238
330
184
100
AcDbEntity
  8
1M_T_R_LOOSE_GRI
  6
Continuous
 62
     7
100
AcDbLine
 10
165.2429094684
 20
99.7029181624
 30
0.0
 11
165.2429094684
 21
99.9529181624
 31
0.0
  0
LINE
  5
239
330
184
100
AcDbEntity
  8
1M_T_R_LOOSE_GRI
  6
Continuous
 62
     7
100
AcDbLine
 10
113.5429094684
 20
99.7029181624
 30
0.0
 11
113.5429094684
 21
99.9529181624
 31
0.0
  0
LINE
  5
23A
330
184
100
AcDbEntity
  8
1M_T_R_LOOSE_GRI
  6
Continuous
 62
     7
100
AcDbLine
 10
113.5429094684
 20
99.0339841795
 30
0.0
 11
113.5429094684
 21
99.7029181624
 31
0.0
  0
LINE
  5
23B
330
184
100
AcDbEntity
  8
1M_T_R_LOOSE_GRI
  6
Continuous
 62
     7
100
AcDbLine
 10
165.2429094684
 20
99.9529181624
 30
0.0
 11
113.5429094684
 21
99.9529181624
 31
0.0
  0
LINE
  5
23C
330
184
100
AcDbEntity
  8
1M_T_R_LOOSE_GRI
  6
Continuous
 62
     7
100
AcDbLine
 10
165.2429094684
 20
99.7029181624
 30
0.0
 11
113.5429094684
 21
99.7029181624
 31
0.0
  0
LINE
  5
23D
330
184
100
AcDbEntity
  8
1M_T_R_LOOSE_GRI
  6
Continuous
 62
     7
100
AcDbLine
 10
165.2429094684
 20
99.0339841795
 30
0.0
 11
113.5429094684
 21
99.0339841795
 31
0.0
  0
LINE
  5
23E
330
184
100
AcDbEntity
  8
1M_T_R_LOOSE_GRI
  6
Continuous
 62
     7
100
AcDbLine
 10
165.2429094684
 20
98.0339841795
 30
0.0
 11
165.2429094684
 21
98.7029181624
 31
0.0
  0
LINE
  5
23F
330
184
100
AcDbEntity
  8
1M_T_R_LOOSE_GRI
  6
Continuous
 62
     7
100
AcDbLine
 10
165.2429094684
 20
98.7029181624
 30
0.0
 11
165.2429094684
 21
98.9529181624
 31
0.0
  0
LINE
  5
240
330
184
100
AcDbEntity
  8
1M_T_R_LOOSE_GRI
  6
Continuous
 62
     7
100
AcDbLine
 10
113.5429094684
 20
98.7029181624
 30
0.0
 11
113.5429094684
 21
98.9529181624
 31
0.0
  0
LINE
  5
241
330
184
100
AcDbEntity
  8
1M_T_R_LOOSE_GRI
  6
Continuous
 62
     7
100
AcDbLine
 10
113.5429094684
 20
98.0339841795
 30
0.0
 11
113.5429094684
 21
98.7029181624
 31
0.0
  0
LINE
  5
242
330
184
100
AcDbEntity
  8
1M_T_R_LOOSE_GRI
  6
Continuous
 62
     7
100
AcDbLine
 10
165.2429094684
 20
98.9529181624
 30
0.0
 11
113.5429094684
 21
98.9529181624
 31
0.0
  0
LINE
  5
243
330
184
100
AcDbEntity
  8
1M_T_R_LOOSE_GRI
  6
Continuous
 62
     7
100
AcDbLine
 10
165.2429094684
 20
98.7029181624
 30
0.0
 11
113.5429094684
 21
98.7029181624
 31
0.0
  0
LINE
  5
244
330
184
100
AcDbEntity
  8
1M_T_R_LOOSE_GRI
  6
Continuous
 62
     7
100
AcDbLine
 10
165.2429094684
 20
98.0339841795
 30
0.0
 11
113.5429094684
 21
98.0339841795
 31
0.0
  0
LINE
  5
245
330
184
100
AcDbEntity
  8
1M_T_R_LOOSE_GRI
  6
Continuous
 62
     7
100
AcDbLine
 10
165.2429094684
 20
97.0339841795
 30
0.0
 11
165.2429094684
 21
97.7029181624
 31
0.0
  0
LINE
  5
246
330
184
100
AcDbEntity
  8
1M_T_R_LOOSE_GRI
  6
Continuous
 62
     7
100
AcDbLine
 10
165.2429094684
 20
97.7029181624
 30
0.0
 11
165.2429094684
 21
97.9529181624
 31
0.0
  0
LINE
  5
247
330
184
100
AcDbEntity
  8
1M_T_R_LOOSE_GRI
  6
Continuous
 62
     7
100
AcDbLine
 10
113.5429094684
 20
97.7029181624
 30
0.0
 11
113.5429094684
 21
97.9529181624
 31
0.0
  0
LINE
  5
248
330
184
100
AcDbEntity
  8
1M_T_R_LOOSE_GRI
  6
Continuous
 62
     7
100
AcDbLine
 10
113.5429094684
 20
97.0339841795
 30
0.0
 11
113.5429094684
 21
97.7029181624
 31
0.0
  0
LINE
  5
249
330
184
100
AcDbEntity
  8
1M_T_R_LOOSE_GRI
  6
Continuous
 62
     7
100
AcDbLine
 10
165.2429094684
 20
97.9529181624
 30
0.0
 11
113.5429094684
 21
97.9529181624
 31
0.0
  0
LINE
  5
24A
330
184
100
AcDbEntity
  8
1M_T_R_LOOSE_GRI
  6
Continuous
 62
     7
100
AcDbLine
 10
165.2429094684
 20
97.7029181624
 30
0.0
 11
113.5429094684
 21
97.7029181624
 31
0.0
  0
LINE
  5
24B
330
184
100
AcDbEntity
  8
1M_T_R_LOOSE_GRI
  6
Continuous
 62
     7
100
AcDbLine
 10
165.2429094684
 20
97.0339841795
 30
0.0
 11
113.5429094684
 21
97.0339841795
 31
0.0
  0
LINE
  5
24C
330
184
100
AcDbEntity
  8
1M_T_R_LOOSE_GRI
  6
Continuous
 62
     7
100
AcDbLine
 10
165.2429094684
 20
95.0339841795
 30
0.0
 11
165.2429094684
 21
95.7029181624
 31
0.0
  0
LINE
  5
24D
330
184
100
AcDbEntity
  8
1M_T_R_LOOSE_GRI
  6
Continuous
 62
     7
100
AcDbLine
 10
165.2429094684
 20
95.7029181624
 30
0.0
 11
165.2429094684
 21
95.9529181624
 31
0.0
  0
LINE
  5
24E
330
184
100
AcDbEntity
  8
1M_T_R_LOOSE_GRI
  6
Continuous
 62
     7
100
AcDbLine
 10
113.5429094684
 20
95.7029181624
 30
0.0
 11
113.5429094684
 21
95.9529181624
 31
0.0
  0
LINE
  5
24F
330
184
100
AcDbEntity
  8
1M_T_R_LOOSE_GRI
  6
Continuous
 62
     7
100
AcDbLine
 10
113.5429094684
 20
95.0339841795
 30
0.0
 11
113.5429094684
 21
95.7029181624
 31
0.0
  0
LINE
  5
250
330
184
100
AcDbEntity
  8
1M_T_R_LOOSE_GRI
  6
Continuous
 62
     7
100
AcDbLine
 10
165.2429094684
 20
95.9529181624
 30
0.0
 11
113.5429094684
 21
95.9529181624
 31
0.0
  0
LINE
  5
251
330
184
100
AcDbEntity
  8
1M_T_R_LOOSE_GRI
  6
Continuous
 62
     7
100
AcDbLine
 10
165.2429094684
 20
95.7029181624
 30
0.0
 11
113.5429094684
 21
95.7029181624
 31
0.0
  0
LINE
  5
252
330
184
100
AcDbEntity
  8
1M_T_R_LOOSE_GRI
  6
Continuous
 62
     7
100
AcDbLine
 10
165.2429094684
 20
95.0339841795
 30
0.0
 11
113.5429094684
 21
95.0339841795
 31
0.0
  0
LINE
  5
253
330
184
100
AcDbEntity
  8
1M_T_R_LOOSE_GRI
  6
Continuous
 62
     7
100
AcDbLine
 10
165.2429094684
 20
94.0339841795
 30
0.0
 11
165.2429094684
 21
94.7029181624
 31
0.0
  0
LINE
  5
254
330
184
100
AcDbEntity
  8
1M_T_R_LOOSE_GRI
  6
Continuous
 62
     7
100
AcDbLine
 10
165.2429094684
 20
94.7029181624
 30
0.0
 11
165.2429094684
 21
94.9529181624
 31
0.0
  0
LINE
  5
255
330
184
100
AcDbEntity
  8
1M_T_R_LOOSE_GRI
  6
Continuous
 62
     7
100
AcDbLine
 10
113.5429094684
 20
94.7029181624
 30
0.0
 11
113.5429094684
 21
94.9529181624
 31
0.0
  0
LINE
  5
256
330
184
100
AcDbEntity
  8
1M_T_R_LOOSE_GRI
  6
Continuous
 62
     7
100
AcDbLine
 10
113.5429094684
 20
94.0339841795
 30
0.0
 11
113.5429094684
 21
94.7029181624
 31
0.0
  0
LINE
  5
257
330
184
100
AcDbEntity
  8
1M_T_R_LOOSE_GRI
  6
Continuous
 62
     7
100
AcDbLine
 10
165.2429094684
 20
94.9529181624
 30
0.0
 11
113.5429094684
 21
94.9529181624
 31
0.0
  0
LINE
  5
258
330
184
100
AcDbEntity
  8
1M_T_R_LOOSE_GRI
  6
Continuous
 62
     7
100
AcDbLine
 10
165.2429094684
 20
94.7029181624
 30
0.0
 11
113.5429094684
 21
94.7029181624
 31
0.0
  0
LINE
  5
259
330
184
100
AcDbEntity
  8
1M_T_R_LOOSE_GRI
  6
Continuous
 62
     7
100
AcDbLine
 10
165.2429094684
 20
94.0339841795
 30
0.0
 11
113.5429094684
 21
94.0339841795
 31
0.0
  0
LINE
  5
25A
330
184
100
AcDbEntity
  8
1M_T_R_LOOSE_GRI
  6
Continuous
 62
     7
100
AcDbLine
 10
165.2429094684
 20
93.0339841795
 30
0.0
 11
165.2429094684
 21
93.7029181624
 31
0.0
  0
LINE
  5
25B
330
184
100
AcDbEntity
  8
1M_T_R_LOOSE_GRI
  6
Continuous
 62
     7
100
AcDbLine
 10
165.2429094684
 20
93.7029181624
 30
0.0
 11
165.2429094684
 21
93.9529181624
 31
0.0
  0
LINE
  5
25C
330
184
100
AcDbEntity
  8
1M_T_R_LOOSE_GRI
  6
Continuous
 62
     7
100
AcDbLine
 10
113.5429094684
 20
93.7029181624
 30
0.0
 11
113.5429094684
 21
93.9529181624
 31
0.0
  0
LINE
  5
25D
330
184
100
AcDbEntity
  8
1M_T_R_LOOSE_GRI
  6
Continuous
 62
     7
100
AcDbLine
 10
113.5429094684
 20
93.0339841795
 30
0.0
 11
113.5429094684
 21
93.7029181624
 31
0.0
  0
LINE
  5
25E
330
184
100
AcDbEntity
  8
1M_T_R_LOOSE_GRI
  6
Continuous
 62
     7
100
AcDbLine
 10
165.2429094684
 20
93.9529181624
 30
0.0
 11
113.5429094684
 21
93.9529181624
 31
0.0
  0
LINE
  5
25F
330
184
100
AcDbEntity
  8
1M_T_R_LOOSE_GRI
  6
Continuous
 62
     7
100
AcDbLine
 10
165.2429094684
 20
93.7029181624
 30
0.0
 11
113.5429094684
 21
93.7029181624
 31
0.0
  0
LINE
  5
260
330
184
100
AcDbEntity
  8
1M_T_R_LOOSE_GRI
  6
Continuous
 62
     7
100
AcDbLine
 10
165.2429094684
 20
93.0339841795
 30
0.0
 11
113.5429094684
 21
93.0339841795
 31
0.0
  0
LINE
  5
261
330
184
100
AcDbEntity
  8
1M_T_R_LOOSE_GRI
  6
Continuous
 62
     7
100
AcDbLine
 10
165.2429094684
 20
92.0339841795
 30
0.0
 11
165.2429094684
 21
92.7029181624
 31
0.0
  0
LINE
  5
262
330
184
100
AcDbEntity
  8
1M_T_R_LOOSE_GRI
  6
Continuous
 62
     7
100
AcDbLine
 10
165.2429094684
 20
92.7029181624
 30
0.0
 11
165.2429094684
 21
92.9529181624
 31
0.0
  0
LINE
  5
263
330
184
100
AcDbEntity
  8
1M_T_R_LOOSE_GRI
  6
Continuous
 62
     7
100
AcDbLine
 10
113.5429094684
 20
92.7029181624
 30
0.0
 11
113.5429094684
 21
92.9529181624
 31
0.0
  0
LINE
  5
264
330
184
100
AcDbEntity
  8
1M_T_R_LOOSE_GRI
  6
Continuous
 62
     7
100
AcDbLine
 10
113.5429094684
 20
92.0339841795
 30
0.0
 11
113.5429094684
 21
92.7029181624
 31
0.0
  0
LINE
  5
265
330
184
100
AcDbEntity
  8
1M_T_R_LOOSE_GRI
  6
Continuous
 62
     7
100
AcDbLine
 10
165.2429094684
 20
92.9529181624
 30
0.0
 11
113.5429094684
 21
92.9529181624
 31
0.0
  0
LINE
  5
266
330
184
100
AcDbEntity
  8
1M_T_R_LOOSE_GRI
  6
Continuous
 62
     7
100
AcDbLine
 10
165.2429094684
 20
92.7029181624
 30
0.0
 11
113.5429094684
 21
92.7029181624
 31
0.0
  0
LINE
  5
267
330
184
100
AcDbEntity
  8
1M_T_R_LOOSE_GRI
  6
Continuous
 62
     7
100
AcDbLine
 10
165.2429094684
 20
92.0339841795
 30
0.0
 11
113.5429094684
 21
92.0339841795
 31
0.0
  0
LINE
  5
268
330
184
100
AcDbEntity
  8
1M_T_R_LOOSE_GRI
  6
Continuous
 62
     7
100
AcDbLine
 10
165.2429094684
 20
91.0339841795
 30
0.0
 11
165.2429094684
 21
91.7029181624
 31
0.0
  0
LINE
  5
269
330
184
100
AcDbEntity
  8
1M_T_R_LOOSE_GRI
  6
Continuous
 62
     7
100
AcDbLine
 10
165.2429094684
 20
91.7029181624
 30
0.0
 11
165.2429094684
 21
91.9529181624
 31
0.0
  0
LINE
  5
26A
330
184
100
AcDbEntity
  8
1M_T_R_LOOSE_GRI
  6
Continuous
 62
     7
100
AcDbLine
 10
113.5429094684
 20
91.7029181624
 30
0.0
 11
113.5429094684
 21
91.9529181624
 31
0.0
  0
LINE
  5
26B
330
184
100
AcDbEntity
  8
1M_T_R_LOOSE_GRI
  6
Continuous
 62
     7
100
AcDbLine
 10
113.5429094684
 20
91.0339841795
 30
0.0
 11
113.5429094684
 21
91.7029181624
 31
0.0
  0
LINE
  5
26C
330
184
100
AcDbEntity
  8
1M_T_R_LOOSE_GRI
  6
Continuous
 62
     7
100
AcDbLine
 10
165.2429094684
 20
91.9529181624
 30
0.0
 11
113.5429094684
 21
91.9529181624
 31
0.0
  0
LINE
  5
26D
330
184
100
AcDbEntity
  8
1M_T_R_LOOSE_GRI
  6
Continuous
 62
     7
100
AcDbLine
 10
165.2429094684
 20
91.7029181624
 30
0.0
 11
113.5429094684
 21
91.7029181624
 31
0.0
  0
LINE
  5
26E
330
184
100
AcDbEntity
  8
1M_T_R_LOOSE_GRI
  6
Continuous
 62
     7
100
AcDbLine
 10
165.2429094684
 20
91.0339841795
 30
0.0
 11
113.5429094684
 21
91.0339841795
 31
0.0
  0
LINE
  5
26F
330
184
100
AcDbEntity
  8
1M_T_R_LOOSE_GRI
  6
Continuous
 62
     7
100
AcDbLine
 10
165.2429094684
 20
96.0339841795
 30
0.0
 11
165.2429094684
 21
96.7029181624
 31
0.0
  0
LINE
  5
270
330
184
100
AcDbEntity
  8
1M_T_R_LOOSE_GRI
  6
Continuous
 62
     7
100
AcDbLine
 10
165.2429094684
 20
96.7029181624
 30
0.0
 11
165.2429094684
 21
96.9529181624
 31
0.0
  0
LINE
  5
271
330
184
100
AcDbEntity
  8
1M_T_R_LOOSE_GRI
  6
Continuous
 62
     7
100
AcDbLine
 10
113.5429094684
 20
96.7029181624
 30
0.0
 11
113.5429094684
 21
96.9529181624
 31
0.0
  0
LINE
  5
272
330
184
100
AcDbEntity
  8
1M_T_R_LOOSE_GRI
  6
Continuous
 62
     7
100
AcDbLine
 10
113.5429094684
 20
96.0339841795
 30
0.0
 11
113.5429094684
 21
96.7029181624
 31
0.0
  0
LINE
  5
273
330
184
100
AcDbEntity
  8
1M_T_R_LOOSE_GRI
  6
Continuous
 62
     7
100
AcDbLine
 10
165.2429094684
 20
96.9529181624
 30
0.0
 11
113.5429094684
 21
96.9529181624
 31
0.0
  0
LINE
  5
274
330
184
100
AcDbEntity
  8
1M_T_R_LOOSE_GRI
  6
Continuous
 62
     7
100
AcDbLine
 10
165.2429094684
 20
96.7029181624
 30
0.0
 11
113.5429094684
 21
96.7029181624
 31
0.0
  0
LINE
  5
275
330
184
100
AcDbEntity
  8
1M_T_R_LOOSE_GRI
  6
Continuous
 62
     7
100
AcDbLine
 10
165.2429094684
 20
96.0339841795
 30
0.0
 11
113.5429094684
 21
96.0339841795
 31
0.0
  0
LINE
  5
276
330
184
100
AcDbEntity
  8
1M_T_R_LOOSE_GRI
  6
Continuous
 62
     7
100
AcDbLine
 10
113.5429094684
 20
86.5964841795
 30
0.0
 11
113.5429094684
 21
86.2714841795
 31
0.0
  0
LINE
  5
277
330
184
100
AcDbEntity
  8
1M_T_R_LOOSE_GRI
  6
Continuous
 62
     7
100
AcDbLine
 10
165.2429094684
 20
86.5964841795
 30
0.0
 11
165.2429094684
 21
86.2714841795
 31
0.0
  0
LINE
  5
278
330
184
100
AcDbEntity
  8
1M_T_R_LOOSE_GRI
  6
Continuous
 62
     7
100
AcDbLine
 10
113.5429094684
 20
86.2714841795
 30
0.0
 11
165.2429094684
 21
86.2714841795
 31
0.0
  0
LINE
  5
279
330
184
100
AcDbEntity
  8
1M_T_R_LOOSE_GRI
  6
Continuous
 62
     7
100
AcDbLine
 10
113.5429094684
 20
86.5964841795
 30
0.0
 11
165.2429094684
 21
86.5964841795
 31
0.0
  0
LINE
  5
27A
330
184
100
AcDbEntity
  8
1M_T_R_LOOSE_GRI
  6
Continuous
 62
     7
100
AcDbLine
 10
165.2429094684
 20
103.0339841795
 30
0.0
 11
165.2429094684
 21
103.7029181624
 31
0.0
  0
LINE
  5
27B
330
184
100
AcDbEntity
  8
1M_T_R_LOOSE_GRI
  6
Continuous
 62
     7
100
AcDbLine
 10
165.2429094684
 20
103.7029181624
 30
0.0
 11
165.2429094684
 21
103.9529181624
 31
0.0
  0
LINE
  5
27C
330
184
100
AcDbEntity
  8
1M_T_R_LOOSE_GRI
  6
Continuous
 62
     7
100
AcDbLine
 10
113.5429094684
 20
103.7029181624
 30
0.0
 11
113.5429094684
 21
103.9529181624
 31
0.0
  0
LINE
  5
27D
330
184
100
AcDbEntity
  8
1M_T_R_LOOSE_GRI
  6
Continuous
 62
     7
100
AcDbLine
 10
113.5429094684
 20
103.0339841795
 30
0.0
 11
113.5429094684
 21
103.7029181624
 31
0.0
  0
LINE
  5
27E
330
184
100
AcDbEntity
  8
1M_T_R_LOOSE_GRI
  6
Continuous
 62
     7
100
AcDbLine
 10
165.2429094684
 20
103.9529181624
 30
0.0
 11
113.5429094684
 21
103.9529181624
 31
0.0
  0
LINE
  5
27F
330
184
100
AcDbEntity
  8
1M_T_R_LOOSE_GRI
  6
Continuous
 62
     7
100
AcDbLine
 10
165.2429094684
 20
103.7029181624
 30
0.0
 11
113.5429094684
 21
103.7029181624
 31
0.0
  0
LINE
  5
280
330
184
100
AcDbEntity
  8
1M_T_R_LOOSE_GRI
  6
Continuous
 62
     7
100
AcDbLine
 10
165.2429094684
 20
103.0339841795
 30
0.0
 11
113.5429094684
 21
103.0339841795
 31
0.0
  0
LINE
  5
282
330
184
100
AcDbEntity
  8
T_R_LOOSE_GRILLE
  6
Continuous
 62
     7
100
AcDbLine
 10
114.7054094684
 20
85.8214841795
 30
0.0
 11
114.7054094684
 21
86.2714841795
 31
0.0
  0
LINE
  5
283
330
184
100
AcDbEntity
  8
T_R_LOOSE_GRILLE
  6
Continuous
 62
     7
100
AcDbLine
 10
114.7054094684
 20
86.5964841795
 30
0.0
 11
114.7054094684
 21
87.2214841795
 31
0.0
  0
LINE
  5
284
330
184
100
AcDbEntity
  8
T_R_LOOSE_GRILLE
  6
Continuous
 62
     7
100
AcDbLine
 10
114.7054094684
 20
87.5464841795
 30
0.0
 11
114.7054094684
 21
88.1714841795
 31
0.0
  0
LINE
  5
285
330
184
100
AcDbEntity
  8
T_R_LOOSE_GRILLE
  6
Continuous
 62
     7
100
AcDbLine
 10
114.7054094684
 20
88.4964841795
 30
0.0
 11
114.7054094684
 21
89.1214841795
 31
0.0
  0
LINE
  5
286
330
184
100
AcDbEntity
  8
T_R_LOOSE_GRILLE
  6
Continuous
 62
     7
100
AcDbLine
 10
114.7054094684
 20
89.4464841795
 30
0.0
 11
114.7054094684
 21
90.0714841795
 31
0.0
  0
LINE
  5
287
330
184
100
AcDbEntity
  8
T_R_LOOSE_GRILLE
  6
Continuous
 62
     7
100
AcDbLine
 10
114.7054094684
 20
90.3964841795
 30
0.0
 11
114.7054094684
 21
91.0339841795
 31
0.0
  0
LINE
  5
288
330
184
100
AcDbEntity
  8
T_R_LOOSE_GRILLE
  6
Continuous
 62
     7
100
AcDbLine
 10
114.7054094684
 20
91.9529181624
 30
0.0
 11
114.7054094684
 21
92.0339841795
 31
0.0
  0
LINE
  5
289
330
184
100
AcDbEntity
  8
T_R_LOOSE_GRILLE
  6
Continuous
 62
     7
100
AcDbLine
 10
114.7054094684
 20
92.9529181624
 30
0.0
 11
114.7054094684
 21
93.0339841795
 31
0.0
  0
LINE
  5
28A
330
184
100
AcDbEntity
  8
T_R_LOOSE_GRILLE
  6
Continuous
 62
     7
100
AcDbLine
 10
114.7054094684
 20
93.9529181624
 30
0.0
 11
114.7054094684
 21
94.0339841795
 31
0.0
  0
LINE
  5
28B
330
184
100
AcDbEntity
  8
T_R_LOOSE_GRILLE
  6
Continuous
 62
     7
100
AcDbLine
 10
114.7054094684
 20
94.9529181624
 30
0.0
 11
114.7054094684
 21
95.0339841795
 31
0.0
  0
LINE
  5
28C
330
184
100
AcDbEntity
  8
T_R_LOOSE_GRILLE
  6
Continuous
 62
     7
100
AcDbLine
 10
114.7054094684
 20
95.9529181624
 30
0.0
 11
114.7054094684
 21
96.0339841795
 31
0.0
  0
LINE
  5
28D
330
184
100
AcDbEntity
  8
T_R_LOOSE_GRILLE
  6
Continuous
 62
     7
100
AcDbLine
 10
114.7054094684
 20
96.9529181624
 30
0.0
 11
114.7054094684
 21
97.0339841795
 31
0.0
  0
LINE
  5
28E
330
184
100
AcDbEntity
  8
T_R_LOOSE_GRILLE
  6
Continuous
 62
     7
100
AcDbLine
 10
114.7054094684
 20
97.9529181624
 30
0.0
 11
114.7054094684
 21
98.0339841795
 31
0.0
  0
LINE
  5
28F
330
184
100
AcDbEntity
  8
T_R_LOOSE_GRILLE
  6
Continuous
 62
     7
100
AcDbLine
 10
114.7054094684
 20
98.9529181624
 30
0.0
 11
114.7054094684
 21
99.0339841795
 31
0.0
  0
LINE
  5
290
330
184
100
AcDbEntity
  8
T_R_LOOSE_GRILLE
  6
Continuous
 62
     7
100
AcDbLine
 10
114.7054094684
 20
99.9529181624
 30
0.0
 11
114.7054094684
 21
100.0339841795
 31
0.0
  0
LINE
  5
291
330
184
100
AcDbEntity
  8
T_R_LOOSE_GRILLE
  6
Continuous
 62
     7
100
AcDbLine
 10
114.7054094684
 20
100.9529181624
 30
0.0
 11
114.7054094684
 21
101.0339841795
 31
0.0
  0
LINE
  5
292
330
184
100
AcDbEntity
  8
T_R_LOOSE_GRILLE
  6
Continuous
 62
     7
100
AcDbLine
 10
114.7054094684
 20
101.9529181624
 30
0.0
 11
114.7054094684
 21
102.0339841795
 31
0.0
  0
LINE
  5
293
330
184
100
AcDbEntity
  8
T_R_LOOSE_GRILLE
  6
Continuous
 62
     7
100
AcDbLine
 10
114.7054094684
 20
102.9529181624
 30
0.0
 11
114.7054094684
 21
103.0339841795
 31
0.0
  0
LINE
  5
294
330
184
100
AcDbEntity
  8
T_R_LOOSE_GRILLE
  6
Continuous
 62
     7
100
AcDbLine
 10
114.7054094684
 20
103.9529181624
 30
0.0
 11
114.7054094684
 21
104.4214841795
 31
0.0
  0
LINE
  5
295
330
184
100
AcDbEntity
  8
T_R_LOOSE_GRILLE
  6
Continuous
 62
     7
100
AcDbLine
 10
114.2804094684
 20
104.4214841795
 30
0.0
 11
114.2804094684
 21
103.9529181624
 31
0.0
  0
LINE
  5
296
330
184
100
AcDbEntity
  8
T_R_LOOSE_GRILLE
  6
Continuous
 62
     7
100
AcDbLine
 10
114.2804094684
 20
103.0339841795
 30
0.0
 11
114.2804094684
 21
102.9529181624
 31
0.0
  0
LINE
  5
297
330
184
100
AcDbEntity
  8
T_R_LOOSE_GRILLE
  6
Continuous
 62
     7
100
AcDbLine
 10
114.2804094684
 20
102.0339841795
 30
0.0
 11
114.2804094684
 21
101.9529181624
 31
0.0
  0
LINE
  5
298
330
184
100
AcDbEntity
  8
T_R_LOOSE_GRILLE
  6
Continuous
 62
     7
100
AcDbLine
 10
114.2804094684
 20
101.0339841795
 30
0.0
 11
114.2804094684
 21
100.9529181624
 31
0.0
  0
LINE
  5
299
330
184
100
AcDbEntity
  8
T_R_LOOSE_GRILLE
  6
Continuous
 62
     7
100
AcDbLine
 10
114.2804094684
 20
100.0339841795
 30
0.0
 11
114.2804094684
 21
99.9529181624
 31
0.0
  0
LINE
  5
29A
330
184
100
AcDbEntity
  8
T_R_LOOSE_GRILLE
  6
Continuous
 62
     7
100
AcDbLine
 10
114.2804094684
 20
99.0339841795
 30
0.0
 11
114.2804094684
 21
98.9529181624
 31
0.0
  0
LINE
  5
29B
330
184
100
AcDbEntity
  8
T_R_LOOSE_GRILLE
  6
Continuous
 62
     7
100
AcDbLine
 10
114.2804094684
 20
98.0339841795
 30
0.0
 11
114.2804094684
 21
97.9529181624
 31
0.0
  0
LINE
  5
29C
330
184
100
AcDbEntity
  8
T_R_LOOSE_GRILLE
  6
Continuous
 62
     7
100
AcDbLine
 10
114.2804094684
 20
97.0339841795
 30
0.0
 11
114.2804094684
 21
96.9529181624
 31
0.0
  0
LINE
  5
29D
330
184
100
AcDbEntity
  8
T_R_LOOSE_GRILLE
  6
Continuous
 62
     7
100
AcDbLine
 10
114.2804094684
 20
96.0339841795
 30
0.0
 11
114.2804094684
 21
95.9529181624
 31
0.0
  0
LINE
  5
29E
330
184
100
AcDbEntity
  8
T_R_LOOSE_GRILLE
  6
Continuous
 62
     7
100
AcDbLine
 10
114.2804094684
 20
95.0339841795
 30
0.0
 11
114.2804094684
 21
94.9529181624
 31
0.0
  0
LINE
  5
29F
330
184
100
AcDbEntity
  8
T_R_LOOSE_GRILLE
  6
Continuous
 62
     7
100
AcDbLine
 10
114.2804094684
 20
94.0339841795
 30
0.0
 11
114.2804094684
 21
93.9529181624
 31
0.0
  0
LINE
  5
2A0
330
184
100
AcDbEntity
  8
T_R_LOOSE_GRILLE
  6
Continuous
 62
     7
100
AcDbLine
 10
114.2804094684
 20
93.0339841795
 30
0.0
 11
114.2804094684
 21
92.9529181624
 31
0.0
  0
LINE
  5
2A1
330
184
100
AcDbEntity
  8
T_R_LOOSE_GRILLE
  6
Continuous
 62
     7
100
AcDbLine
 10
114.2804094684
 20
92.0339841795
 30
0.0
 11
114.2804094684
 21
91.9529181624
 31
0.0
  0
LINE
  5
2A2
330
184
100
AcDbEntity
  8
T_R_LOOSE_GRILLE
  6
Continuous
 62
     7
100
AcDbLine
 10
114.2804094684
 20
91.0339841795
 30
0.0
 11
114.2804094684
 21
90.3964841795
 31
0.0
  0
LINE
  5
2A3
330
184
100
AcDbEntity
  8
T_R_LOOSE_GRILLE
  6
Continuous
 62
     7
100
AcDbLine
 10
114.2804094684
 20
90.0714841795
 30
0.0
 11
114.2804094684
 21
89.4464841795
 31
0.0
  0
LINE
  5
2A4
330
184
100
AcDbEntity
  8
T_R_LOOSE_GRILLE
  6
Continuous
 62
     7
100
AcDbLine
 10
114.2804094684
 20
89.1214841795
 30
0.0
 11
114.2804094684
 21
88.4964841795
 31
0.0
  0
LINE
  5
2A5
330
184
100
AcDbEntity
  8
T_R_LOOSE_GRILLE
  6
Continuous
 62
     7
100
AcDbLine
 10
114.2804094684
 20
88.1714841795
 30
0.0
 11
114.2804094684
 21
87.5464841795
 31
0.0
  0
LINE
  5
2A6
330
184
100
AcDbEntity
  8
T_R_LOOSE_GRILLE
  6
Continuous
 62
     7
100
AcDbLine
 10
114.2804094684
 20
87.2214841795
 30
0.0
 11
114.2804094684
 21
86.5964841795
 31
0.0
  0
LINE
  5
2A7
330
184
100
AcDbEntity
  8
T_R_LOOSE_GRILLE
  6
Continuous
 62
     7
100
AcDbLine
 10
114.2804094684
 20
86.2714841795
 30
0.0
 11
114.2804094684
 21
85.8214841795
 31
0.0
  0
LINE
  5
2A8
330
184
100
AcDbEntity
  8
T_R_LOOSE_GRILLE
  6
Continuous
 62
     7
100
AcDbLine
 10
127.1554094684
 20
85.8214841795
 30
0.0
 11
127.1554094684
 21
86.2714841795
 31
0.0
  0
LINE
  5
2A9
330
184
100
AcDbEntity
  8
T_R_LOOSE_GRILLE
  6
Continuous
 62
     7
100
AcDbLine
 10
127.1554094684
 20
86.5964841795
 30
0.0
 11
127.1554094684
 21
87.2214841795
 31
0.0
  0
LINE
  5
2AA
330
184
100
AcDbEntity
  8
T_R_LOOSE_GRILLE
  6
Continuous
 62
     7
100
AcDbLine
 10
127.1554094684
 20
87.5464841795
 30
0.0
 11
127.1554094684
 21
88.1714841795
 31
0.0
  0
LINE
  5
2AB
330
184
100
AcDbEntity
  8
T_R_LOOSE_GRILLE
  6
Continuous
 62
     7
100
AcDbLine
 10
127.1554094684
 20
88.4964841795
 30
0.0
 11
127.1554094684
 21
89.1214841795
 31
0.0
  0
LINE
  5
2AC
330
184
100
AcDbEntity
  8
T_R_LOOSE_GRILLE
  6
Continuous
 62
     7
100
AcDbLine
 10
127.1554094684
 20
89.4464841795
 30
0.0
 11
127.1554094684
 21
90.0714841795
 31
0.0
  0
LINE
  5
2AD
330
184
100
AcDbEntity
  8
T_R_LOOSE_GRILLE
  6
Continuous
 62
     7
100
AcDbLine
 10
127.1554094684
 20
90.3964841795
 30
0.0
 11
127.1554094684
 21
91.0339841795
 31
0.0
  0
LINE
  5
2AE
330
184
100
AcDbEntity
  8
T_R_LOOSE_GRILLE
  6
Continuous
 62
     7
100
AcDbLine
 10
127.1554094684
 20
91.9529181624
 30
0.0
 11
127.1554094684
 21
92.0339841795
 31
0.0
  0
LINE
  5
2AF
330
184
100
AcDbEntity
  8
T_R_LOOSE_GRILLE
  6
Continuous
 62
     7
100
AcDbLine
 10
127.1554094684
 20
92.9529181624
 30
0.0
 11
127.1554094684
 21
93.0339841795
 31
0.0
  0
LINE
  5
2B0
330
184
100
AcDbEntity
  8
T_R_LOOSE_GRILLE
  6
Continuous
 62
     7
100
AcDbLine
 10
127.1554094684
 20
93.9529181624
 30
0.0
 11
127.1554094684
 21
94.0339841795
 31
0.0
  0
LINE
  5
2B1
330
184
100
AcDbEntity
  8
T_R_LOOSE_GRILLE
  6
Continuous
 62
     7
100
AcDbLine
 10
127.1554094684
 20
94.9529181624
 30
0.0
 11
127.1554094684
 21
95.0339841795
 31
0.0
  0
LINE
  5
2B2
330
184
100
AcDbEntity
  8
T_R_LOOSE_GRILLE
  6
Continuous
 62
     7
100
AcDbLine
 10
127.1554094684
 20
95.9529181624
 30
0.0
 11
127.1554094684
 21
96.0339841795
 31
0.0
  0
LINE
  5
2B3
330
184
100
AcDbEntity
  8
T_R_LOOSE_GRILLE
  6
Continuous
 62
     7
100
AcDbLine
 10
127.1554094684
 20
96.9529181624
 30
0.0
 11
127.1554094684
 21
97.0339841795
 31
0.0
  0
LINE
  5
2B4
330
184
100
AcDbEntity
  8
T_R_LOOSE_GRILLE
  6
Continuous
 62
     7
100
AcDbLine
 10
127.1554094684
 20
97.9529181624
 30
0.0
 11
127.1554094684
 21
98.0339841795
 31
0.0
  0
LINE
  5
2B5
330
184
100
AcDbEntity
  8
T_R_LOOSE_GRILLE
  6
Continuous
 62
     7
100
AcDbLine
 10
127.1554094684
 20
98.9529181624
 30
0.0
 11
127.1554094684
 21
99.0339841795
 31
0.0
  0
LINE
  5
2B6
330
184
100
AcDbEntity
  8
T_R_LOOSE_GRILLE
  6
Continuous
 62
     7
100
AcDbLine
 10
127.1554094684
 20
99.9529181624
 30
0.0
 11
127.1554094684
 21
100.0339841795
 31
0.0
  0
LINE
  5
2B7
330
184
100
AcDbEntity
  8
T_R_LOOSE_GRILLE
  6
Continuous
 62
     7
100
AcDbLine
 10
127.1554094684
 20
100.9529181624
 30
0.0
 11
127.1554094684
 21
101.0339841795
 31
0.0
  0
LINE
  5
2B8
330
184
100
AcDbEntity
  8
T_R_LOOSE_GRILLE
  6
Continuous
 62
     7
100
AcDbLine
 10
127.1554094684
 20
101.9529181624
 30
0.0
 11
127.1554094684
 21
102.0339841795
 31
0.0
  0
LINE
  5
2B9
330
184
100
AcDbEntity
  8
T_R_LOOSE_GRILLE
  6
Continuous
 62
     7
100
AcDbLine
 10
127.1554094684
 20
102.9529181624
 30
0.0
 11
127.1554094684
 21
103.0339841795
 31
0.0
  0
LINE
  5
2BA
330
184
100
AcDbEntity
  8
T_R_LOOSE_GRILLE
  6
Continuous
 62
     7
100
AcDbLine
 10
127.1554094684
 20
103.9529181624
 30
0.0
 11
127.1554094684
 21
104.4214841795
 31
0.0
  0
LINE
  5
2BB
330
184
100
AcDbEntity
  8
T_R_LOOSE_GRILLE
  6
Continuous
 62
     7
100
AcDbLine
 10
126.7304094684
 20
104.4214841795
 30
0.0
 11
126.7304094684
 21
103.9529181624
 31
0.0
  0
LINE
  5
2BC
330
184
100
AcDbEntity
  8
T_R_LOOSE_GRILLE
  6
Continuous
 62
     7
100
AcDbLine
 10
126.7304094684
 20
103.0339841795
 30
0.0
 11
126.7304094684
 21
102.9529181624
 31
0.0
  0
LINE
  5
2BD
330
184
100
AcDbEntity
  8
T_R_LOOSE_GRILLE
  6
Continuous
 62
     7
100
AcDbLine
 10
126.7304094684
 20
102.0339841795
 30
0.0
 11
126.7304094684
 21
101.9529181624
 31
0.0
  0
LINE
  5
2BE
330
184
100
AcDbEntity
  8
T_R_LOOSE_GRILLE
  6
Continuous
 62
     7
100
AcDbLine
 10
126.7304094684
 20
101.0339841795
 30
0.0
 11
126.7304094684
 21
100.9529181624
 31
0.0
  0
LINE
  5
2BF
330
184
100
AcDbEntity
  8
T_R_LOOSE_GRILLE
  6
Continuous
 62
     7
100
AcDbLine
 10
126.7304094684
 20
100.0339841795
 30
0.0
 11
126.7304094684
 21
99.9529181624
 31
0.0
  0
LINE
  5
2C0
330
184
100
AcDbEntity
  8
T_R_LOOSE_GRILLE
  6
Continuous
 62
     7
100
AcDbLine
 10
126.7304094684
 20
99.0339841795
 30
0.0
 11
126.7304094684
 21
98.9529181624
 31
0.0
  0
LINE
  5
2C1
330
184
100
AcDbEntity
  8
T_R_LOOSE_GRILLE
  6
Continuous
 62
     7
100
AcDbLine
 10
126.7304094684
 20
98.0339841795
 30
0.0
 11
126.7304094684
 21
97.9529181624
 31
0.0
  0
LINE
  5
2C2
330
184
100
AcDbEntity
  8
T_R_LOOSE_GRILLE
  6
Continuous
 62
     7
100
AcDbLine
 10
126.7304094684
 20
97.0339841795
 30
0.0
 11
126.7304094684
 21
96.9529181624
 31
0.0
  0
LINE
  5
2C3
330
184
100
AcDbEntity
  8
T_R_LOOSE_GRILLE
  6
Continuous
 62
     7
100
AcDbLine
 10
126.7304094684
 20
96.0339841795
 30
0.0
 11
126.7304094684
 21
95.9529181624
 31
0.0
  0
LINE
  5
2C4
330
184
100
AcDbEntity
  8
T_R_LOOSE_GRILLE
  6
Continuous
 62
     7
100
AcDbLine
 10
126.7304094684
 20
95.0339841795
 30
0.0
 11
126.7304094684
 21
94.9529181624
 31
0.0
  0
LINE
  5
2C5
330
184
100
AcDbEntity
  8
T_R_LOOSE_GRILLE
  6
Continuous
 62
     7
100
AcDbLine
 10
126.7304094684
 20
94.0339841795
 30
0.0
 11
126.7304094684
 21
93.9529181624
 31
0.0
  0
LINE
  5
2C6
330
184
100
AcDbEntity
  8
T_R_LOOSE_GRILLE
  6
Continuous
 62
     7
100
AcDbLine
 10
126.7304094684
 20
93.0339841795
 30
0.0
 11
126.7304094684
 21
92.9529181624
 31
0.0
  0
LINE
  5
2C7
330
184
100
AcDbEntity
  8
T_R_LOOSE_GRILLE
  6
Continuous
 62
     7
100
AcDbLine
 10
126.7304094684
 20
92.0339841795
 30
0.0
 11
126.7304094684
 21
91.9529181624
 31
0.0
  0
LINE
  5
2C8
330
184
100
AcDbEntity
  8
T_R_LOOSE_GRILLE
  6
Continuous
 62
     7
100
AcDbLine
 10
126.7304094684
 20
91.0339841795
 30
0.0
 11
126.7304094684
 21
90.3964841795
 31
0.0
  0
LINE
  5
2C9
330
184
100
AcDbEntity
  8
T_R_LOOSE_GRILLE
  6
Continuous
 62
     7
100
AcDbLine
 10
126.7304094684
 20
90.0714841795
 30
0.0
 11
126.7304094684
 21
89.4464841795
 31
0.0
  0
LINE
  5
2CA
330
184
100
AcDbEntity
  8
T_R_LOOSE_GRILLE
  6
Continuous
 62
     7
100
AcDbLine
 10
126.7304094684
 20
89.1214841795
 30
0.0
 11
126.7304094684
 21
88.4964841795
 31
0.0
  0
LINE
  5
2CB
330
184
100
AcDbEntity
  8
T_R_LOOSE_GRILLE
  6
Continuous
 62
     7
100
AcDbLine
 10
126.7304094684
 20
88.1714841795
 30
0.0
 11
126.7304094684
 21
87.5464841795
 31
0.0
  0
LINE
  5
2CC
330
184
100
AcDbEntity
  8
T_R_LOOSE_GRILLE
  6
Continuous
 62
     7
100
AcDbLine
 10
126.7304094684
 20
87.2214841795
 30
0.0
 11
126.7304094684
 21
86.5964841795
 31
0.0
  0
LINE
  5
2CD
330
184
100
AcDbEntity
  8
T_R_LOOSE_GRILLE
  6
Continuous
 62
     7
100
AcDbLine
 10
126.7304094684
 20
86.2714841795
 30
0.0
 11
126.7304094684
 21
85.8214841795
 31
0.0
  0
LINE
  5
2CE
330
184
100
AcDbEntity
  8
T_R_LOOSE_GRILLE
  6
Continuous
 62
     7
100
AcDbLine
 10
139.6054094684
 20
85.8214841795
 30
0.0
 11
139.6054094684
 21
86.2714841795
 31
0.0
  0
LINE
  5
2CF
330
184
100
AcDbEntity
  8
T_R_LOOSE_GRILLE
  6
Continuous
 62
     7
100
AcDbLine
 10
139.6054094684
 20
86.5964841795
 30
0.0
 11
139.6054094684
 21
87.2214841795
 31
0.0
  0
LINE
  5
2D0
330
184
100
AcDbEntity
  8
T_R_LOOSE_GRILLE
  6
Continuous
 62
     7
100
AcDbLine
 10
139.6054094684
 20
87.5464841795
 30
0.0
 11
139.6054094684
 21
88.1714841795
 31
0.0
  0
LINE
  5
2D1
330
184
100
AcDbEntity
  8
T_R_LOOSE_GRILLE
  6
Continuous
 62
     7
100
AcDbLine
 10
139.6054094684
 20
88.4964841795
 30
0.0
 11
139.6054094684
 21
89.1214841795
 31
0.0
  0
LINE
  5
2D2
330
184
100
AcDbEntity
  8
T_R_LOOSE_GRILLE
  6
Continuous
 62
     7
100
AcDbLine
 10
139.6054094684
 20
89.4464841795
 30
0.0
 11
139.6054094684
 21
90.0714841795
 31
0.0
  0
LINE
  5
2D3
330
184
100
AcDbEntity
  8
T_R_LOOSE_GRILLE
  6
Continuous
 62
     7
100
AcDbLine
 10
139.6054094684
 20
90.3964841795
 30
0.0
 11
139.6054094684
 21
91.0339841795
 31
0.0
  0
LINE
  5
2D4
330
184
100
AcDbEntity
  8
T_R_LOOSE_GRILLE
  6
Continuous
 62
     7
100
AcDbLine
 10
139.6054094684
 20
91.9529181624
 30
0.0
 11
139.6054094684
 21
92.0339841795
 31
0.0
  0
LINE
  5
2D5
330
184
100
AcDbEntity
  8
T_R_LOOSE_GRILLE
  6
Continuous
 62
     7
100
AcDbLine
 10
139.6054094684
 20
92.9529181624
 30
0.0
 11
139.6054094684
 21
93.0339841795
 31
0.0
  0
LINE
  5
2D6
330
184
100
AcDbEntity
  8
T_R_LOOSE_GRILLE
  6
Continuous
 62
     7
100
AcDbLine
 10
139.6054094684
 20
93.9529181624
 30
0.0
 11
139.6054094684
 21
94.0339841795
 31
0.0
  0
LINE
  5
2D7
330
184
100
AcDbEntity
  8
T_R_LOOSE_GRILLE
  6
Continuous
 62
     7
100
AcDbLine
 10
139.6054094684
 20
94.9529181624
 30
0.0
 11
139.6054094684
 21
95.0339841795
 31
0.0
  0
LINE
  5
2D8
330
184
100
AcDbEntity
  8
T_R_LOOSE_GRILLE
  6
Continuous
 62
     7
100
AcDbLine
 10
139.6054094684
 20
95.9529181624
 30
0.0
 11
139.6054094684
 21
96.0339841795
 31
0.0
  0
LINE
  5
2D9
330
184
100
AcDbEntity
  8
T_R_LOOSE_GRILLE
  6
Continuous
 62
     7
100
AcDbLine
 10
139.6054094684
 20
96.9529181624
 30
0.0
 11
139.6054094684
 21
97.0339841795
 31
0.0
  0
LINE
  5
2DA
330
184
100
AcDbEntity
  8
T_R_LOOSE_GRILLE
  6
Continuous
 62
     7
100
AcDbLine
 10
139.6054094684
 20
97.9529181624
 30
0.0
 11
139.6054094684
 21
98.0339841795
 31
0.0
  0
LINE
  5
2DB
330
184
100
AcDbEntity
  8
T_R_LOOSE_GRILLE
  6
Continuous
 62
     7
100
AcDbLine
 10
139.6054094684
 20
98.9529181624
 30
0.0
 11
139.6054094684
 21
99.0339841795
 31
0.0
  0
LINE
  5
2DC
330
184
100
AcDbEntity
  8
T_R_LOOSE_GRILLE
  6
Continuous
 62
     7
100
AcDbLine
 10
139.6054094684
 20
99.9529181624
 30
0.0
 11
139.6054094684
 21
100.0339841795
 31
0.0
  0
LINE
  5
2DD
330
184
100
AcDbEntity
  8
T_R_LOOSE_GRILLE
  6
Continuous
 62
     7
100
AcDbLine
 10
139.6054094684
 20
100.9529181624
 30
0.0
 11
139.6054094684
 21
101.0339841795
 31
0.0
  0
LINE
  5
2DE
330
184
100
AcDbEntity
  8
T_R_LOOSE_GRILLE
  6
Continuous
 62
     7
100
AcDbLine
 10
139.6054094684
 20
101.9529181624
 30
0.0
 11
139.6054094684
 21
102.0339841795
 31
0.0
  0
LINE
  5
2DF
330
184
100
AcDbEntity
  8
T_R_LOOSE_GRILLE
  6
Continuous
 62
     7
100
AcDbLine
 10
139.6054094684
 20
102.9529181624
 30
0.0
 11
139.6054094684
 21
103.0339841795
 31
0.0
  0
LINE
  5
2E0
330
184
100
AcDbEntity
  8
T_R_LOOSE_GRILLE
  6
Continuous
 62
     7
100
AcDbLine
 10
139.6054094684
 20
103.9529181624
 30
0.0
 11
139.6054094684
 21
104.4214841795
 31
0.0
  0
LINE
  5
2E1
330
184
100
AcDbEntity
  8
T_R_LOOSE_GRILLE
  6
Continuous
 62
     7
100
AcDbLine
 10
139.1804094684
 20
104.4214841795
 30
0.0
 11
139.1804094684
 21
103.9529181624
 31
0.0
  0
LINE
  5
2E2
330
184
100
AcDbEntity
  8
T_R_LOOSE_GRILLE
  6
Continuous
 62
     7
100
AcDbLine
 10
139.1804094684
 20
103.0339841795
 30
0.0
 11
139.1804094684
 21
102.9529181624
 31
0.0
  0
LINE
  5
2E3
330
184
100
AcDbEntity
  8
T_R_LOOSE_GRILLE
  6
Continuous
 62
     7
100
AcDbLine
 10
139.1804094684
 20
102.0339841795
 30
0.0
 11
139.1804094684
 21
101.9529181624
 31
0.0
  0
LINE
  5
2E4
330
184
100
AcDbEntity
  8
T_R_LOOSE_GRILLE
  6
Continuous
 62
     7
100
AcDbLine
 10
139.1804094684
 20
101.0339841795
 30
0.0
 11
139.1804094684
 21
100.9529181624
 31
0.0
  0
LINE
  5
2E5
330
184
100
AcDbEntity
  8
T_R_LOOSE_GRILLE
  6
Continuous
 62
     7
100
AcDbLine
 10
139.1804094684
 20
100.0339841795
 30
0.0
 11
139.1804094684
 21
99.9529181624
 31
0.0
  0
LINE
  5
2E6
330
184
100
AcDbEntity
  8
T_R_LOOSE_GRILLE
  6
Continuous
 62
     7
100
AcDbLine
 10
139.1804094684
 20
99.0339841795
 30
0.0
 11
139.1804094684
 21
98.9529181624
 31
0.0
  0
LINE
  5
2E7
330
184
100
AcDbEntity
  8
T_R_LOOSE_GRILLE
  6
Continuous
 62
     7
100
AcDbLine
 10
139.1804094684
 20
98.0339841795
 30
0.0
 11
139.1804094684
 21
97.9529181624
 31
0.0
  0
LINE
  5
2E8
330
184
100
AcDbEntity
  8
T_R_LOOSE_GRILLE
  6
Continuous
 62
     7
100
AcDbLine
 10
139.1804094684
 20
97.0339841795
 30
0.0
 11
139.1804094684
 21
96.9529181624
 31
0.0
  0
LINE
  5
2E9
330
184
100
AcDbEntity
  8
T_R_LOOSE_GRILLE
  6
Continuous
 62
     7
100
AcDbLine
 10
139.1804094684
 20
96.0339841795
 30
0.0
 11
139.1804094684
 21
95.9529181624
 31
0.0
  0
LINE
  5
2EA
330
184
100
AcDbEntity
  8
T_R_LOOSE_GRILLE
  6
Continuous
 62
     7
100
AcDbLine
 10
139.1804094684
 20
95.0339841795
 30
0.0
 11
139.1804094684
 21
94.9529181624
 31
0.0
  0
LINE
  5
2EB
330
184
100
AcDbEntity
  8
T_R_LOOSE_GRILLE
  6
Continuous
 62
     7
100
AcDbLine
 10
139.1804094684
 20
94.0339841795
 30
0.0
 11
139.1804094684
 21
93.9529181624
 31
0.0
  0
LINE
  5
2EC
330
184
100
AcDbEntity
  8
T_R_LOOSE_GRILLE
  6
Continuous
 62
     7
100
AcDbLine
 10
139.1804094684
 20
93.0339841795
 30
0.0
 11
139.1804094684
 21
92.9529181624
 31
0.0
  0
LINE
  5
2ED
330
184
100
AcDbEntity
  8
T_R_LOOSE_GRILLE
  6
Continuous
 62
     7
100
AcDbLine
 10
139.1804094684
 20
92.0339841795
 30
0.0
 11
139.1804094684
 21
91.9529181624
 31
0.0
  0
LINE
  5
2EE
330
184
100
AcDbEntity
  8
T_R_LOOSE_GRILLE
  6
Continuous
 62
     7
100
AcDbLine
 10
139.1804094684
 20
91.0339841795
 30
0.0
 11
139.1804094684
 21
90.3964841795
 31
0.0
  0
LINE
  5
2EF
330
184
100
AcDbEntity
  8
T_R_LOOSE_GRILLE
  6
Continuous
 62
     7
100
AcDbLine
 10
139.1804094684
 20
90.0714841795
 30
0.0
 11
139.1804094684
 21
89.4464841795
 31
0.0
  0
LINE
  5
2F0
330
184
100
AcDbEntity
  8
T_R_LOOSE_GRILLE
  6
Continuous
 62
     7
100
AcDbLine
 10
139.1804094684
 20
89.1214841795
 30
0.0
 11
139.1804094684
 21
88.4964841795
 31
0.0
  0
LINE
  5
2F1
330
184
100
AcDbEntity
  8
T_R_LOOSE_GRILLE
  6
Continuous
 62
     7
100
AcDbLine
 10
139.1804094684
 20
88.1714841795
 30
0.0
 11
139.1804094684
 21
87.5464841795
 31
0.0
  0
LINE
  5
2F2
330
184
100
AcDbEntity
  8
T_R_LOOSE_GRILLE
  6
Continuous
 62
     7
100
AcDbLine
 10
139.1804094684
 20
87.2214841795
 30
0.0
 11
139.1804094684
 21
86.5964841795
 31
0.0
  0
LINE
  5
2F3
330
184
100
AcDbEntity
  8
T_R_LOOSE_GRILLE
  6
Continuous
 62
     7
100
AcDbLine
 10
139.1804094684
 20
86.2714841795
 30
0.0
 11
139.1804094684
 21
85.8214841795
 31
0.0
  0
LINE
  5
2F4
330
184
100
AcDbEntity
  8
T_R_LOOSE_GRILLE
  6
Continuous
 62
     7
100
AcDbLine
 10
152.0554094684
 20
85.8214841795
 30
0.0
 11
152.0554094684
 21
86.2714841795
 31
0.0
  0
LINE
  5
2F5
330
184
100
AcDbEntity
  8
T_R_LOOSE_GRILLE
  6
Continuous
 62
     7
100
AcDbLine
 10
152.0554094684
 20
86.5964841795
 30
0.0
 11
152.0554094684
 21
87.2214841795
 31
0.0
  0
LINE
  5
2F6
330
184
100
AcDbEntity
  8
T_R_LOOSE_GRILLE
  6
Continuous
 62
     7
100
AcDbLine
 10
152.0554094684
 20
87.5464841795
 30
0.0
 11
152.0554094684
 21
88.1714841795
 31
0.0
  0
LINE
  5
2F7
330
184
100
AcDbEntity
  8
T_R_LOOSE_GRILLE
  6
Continuous
 62
     7
100
AcDbLine
 10
152.0554094684
 20
88.4964841795
 30
0.0
 11
152.0554094684
 21
89.1214841795
 31
0.0
  0
LINE
  5
2F8
330
184
100
AcDbEntity
  8
T_R_LOOSE_GRILLE
  6
Continuous
 62
     7
100
AcDbLine
 10
152.0554094684
 20
89.4464841795
 30
0.0
 11
152.0554094684
 21
90.0714841795
 31
0.0
  0
LINE
  5
2F9
330
184
100
AcDbEntity
  8
T_R_LOOSE_GRILLE
  6
Continuous
 62
     7
100
AcDbLine
 10
152.0554094684
 20
90.3964841795
 30
0.0
 11
152.0554094684
 21
91.0339841795
 31
0.0
  0
LINE
  5
2FA
330
184
100
AcDbEntity
  8
T_R_LOOSE_GRILLE
  6
Continuous
 62
     7
100
AcDbLine
 10
152.0554094684
 20
91.9529181624
 30
0.0
 11
152.0554094684
 21
92.0339841795
 31
0.0
  0
LINE
  5
2FB
330
184
100
AcDbEntity
  8
T_R_LOOSE_GRILLE
  6
Continuous
 62
     7
100
AcDbLine
 10
152.0554094684
 20
92.9529181624
 30
0.0
 11
152.0554094684
 21
93.0339841795
 31
0.0
  0
LINE
  5
2FC
330
184
100
AcDbEntity
  8
T_R_LOOSE_GRILLE
  6
Continuous
 62
     7
100
AcDbLine
 10
152.0554094684
 20
93.9529181624
 30
0.0
 11
152.0554094684
 21
94.0339841795
 31
0.0
  0
LINE
  5
2FD
330
184
100
AcDbEntity
  8
T_R_LOOSE_GRILLE
  6
Continuous
 62
     7
100
AcDbLine
 10
152.0554094684
 20
94.9529181624
 30
0.0
 11
152.0554094684
 21
95.0339841795
 31
0.0
  0
LINE
  5
2FE
330
184
100
AcDbEntity
  8
T_R_LOOSE_GRILLE
  6
Continuous
 62
     7
100
AcDbLine
 10
152.0554094684
 20
95.9529181624
 30
0.0
 11
152.0554094684
 21
96.0339841795
 31
0.0
  0
LINE
  5
2FF
330
184
100
AcDbEntity
  8
T_R_LOOSE_GRILLE
  6
Continuous
 62
     7
100
AcDbLine
 10
152.0554094684
 20
96.9529181624
 30
0.0
 11
152.0554094684
 21
97.0339841795
 31
0.0
  0
LINE
  5
300
330
184
100
AcDbEntity
  8
T_R_LOOSE_GRILLE
  6
Continuous
 62
     7
100
AcDbLine
 10
152.0554094684
 20
97.9529181624
 30
0.0
 11
152.0554094684
 21
98.0339841795
 31
0.0
  0
LINE
  5
301
330
184
100
AcDbEntity
  8
T_R_LOOSE_GRILLE
  6
Continuous
 62
     7
100
AcDbLine
 10
152.0554094684
 20
98.9529181624
 30
0.0
 11
152.0554094684
 21
99.0339841795
 31
0.0
  0
LINE
  5
302
330
184
100
AcDbEntity
  8
T_R_LOOSE_GRILLE
  6
Continuous
 62
     7
100
AcDbLine
 10
152.0554094684
 20
99.9529181624
 30
0.0
 11
152.0554094684
 21
100.0339841795
 31
0.0
  0
LINE
  5
303
330
184
100
AcDbEntity
  8
T_R_LOOSE_GRILLE
  6
Continuous
 62
     7
100
AcDbLine
 10
152.0554094684
 20
100.9529181624
 30
0.0
 11
152.0554094684
 21
101.0339841795
 31
0.0
  0
LINE
  5
304
330
184
100
AcDbEntity
  8
T_R_LOOSE_GRILLE
  6
Continuous
 62
     7
100
AcDbLine
 10
152.0554094684
 20
101.9529181624
 30
0.0
 11
152.0554094684
 21
102.0339841795
 31
0.0
  0
LINE
  5
305
330
184
100
AcDbEntity
  8
T_R_LOOSE_GRILLE
  6
Continuous
 62
     7
100
AcDbLine
 10
152.0554094684
 20
102.9529181624
 30
0.0
 11
152.0554094684
 21
103.0339841795
 31
0.0
  0
LINE
  5
306
330
184
100
AcDbEntity
  8
T_R_LOOSE_GRILLE
  6
Continuous
 62
     7
100
AcDbLine
 10
152.0554094684
 20
103.9529181624
 30
0.0
 11
152.0554094684
 21
104.4214841795
 31
0.0
  0
LINE
  5
307
330
184
100
AcDbEntity
  8
T_R_LOOSE_GRILLE
  6
Continuous
 62
     7
100
AcDbLine
 10
151.6304094684
 20
104.4214841795
 30
0.0
 11
151.6304094684
 21
103.9529181624
 31
0.0
  0
LINE
  5
308
330
184
100
AcDbEntity
  8
T_R_LOOSE_GRILLE
  6
Continuous
 62
     7
100
AcDbLine
 10
151.6304094684
 20
103.0339841795
 30
0.0
 11
151.6304094684
 21
102.9529181624
 31
0.0
  0
LINE
  5
309
330
184
100
AcDbEntity
  8
T_R_LOOSE_GRILLE
  6
Continuous
 62
     7
100
AcDbLine
 10
151.6304094684
 20
102.0339841795
 30
0.0
 11
151.6304094684
 21
101.9529181624
 31
0.0
  0
LINE
  5
30A
330
184
100
AcDbEntity
  8
T_R_LOOSE_GRILLE
  6
Continuous
 62
     7
100
AcDbLine
 10
151.6304094684
 20
101.0339841795
 30
0.0
 11
151.6304094684
 21
100.9529181624
 31
0.0
  0
LINE
  5
30B
330
184
100
AcDbEntity
  8
T_R_LOOSE_GRILLE
  6
Continuous
 62
     7
100
AcDbLine
 10
151.6304094684
 20
100.0339841795
 30
0.0
 11
151.6304094684
 21
99.9529181624
 31
0.0
  0
LINE
  5
30C
330
184
100
AcDbEntity
  8
T_R_LOOSE_GRILLE
  6
Continuous
 62
     7
100
AcDbLine
 10
151.6304094684
 20
99.0339841795
 30
0.0
 11
151.6304094684
 21
98.9529181624
 31
0.0
  0
LINE
  5
30D
330
184
100
AcDbEntity
  8
T_R_LOOSE_GRILLE
  6
Continuous
 62
     7
100
AcDbLine
 10
151.6304094684
 20
98.0339841795
 30
0.0
 11
151.6304094684
 21
97.9529181624
 31
0.0
  0
LINE
  5
30E
330
184
100
AcDbEntity
  8
T_R_LOOSE_GRILLE
  6
Continuous
 62
     7
100
AcDbLine
 10
151.6304094684
 20
97.0339841795
 30
0.0
 11
151.6304094684
 21
96.9529181624
 31
0.0
  0
LINE
  5
30F
330
184
100
AcDbEntity
  8
T_R_LOOSE_GRILLE
  6
Continuous
 62
     7
100
AcDbLine
 10
151.6304094684
 20
96.0339841795
 30
0.0
 11
151.6304094684
 21
95.9529181624
 31
0.0
  0
LINE
  5
310
330
184
100
AcDbEntity
  8
T_R_LOOSE_GRILLE
  6
Continuous
 62
     7
100
AcDbLine
 10
151.6304094684
 20
95.0339841795
 30
0.0
 11
151.6304094684
 21
94.9529181624
 31
0.0
  0
LINE
  5
311
330
184
100
AcDbEntity
  8
T_R_LOOSE_GRILLE
  6
Continuous
 62
     7
100
AcDbLine
 10
151.6304094684
 20
94.0339841795
 30
0.0
 11
151.6304094684
 21
93.9529181624
 31
0.0
  0
LINE
  5
312
330
184
100
AcDbEntity
  8
T_R_LOOSE_GRILLE
  6
Continuous
 62
     7
100
AcDbLine
 10
151.6304094684
 20
93.0339841795
 30
0.0
 11
151.6304094684
 21
92.9529181624
 31
0.0
  0
LINE
  5
313
330
184
100
AcDbEntity
  8
T_R_LOOSE_GRILLE
  6
Continuous
 62
     7
100
AcDbLine
 10
151.6304094684
 20
92.0339841795
 30
0.0
 11
151.6304094684
 21
91.9529181624
 31
0.0
  0
LINE
  5
314
330
184
100
AcDbEntity
  8
T_R_LOOSE_GRILLE
  6
Continuous
 62
     7
100
AcDbLine
 10
151.6304094684
 20
91.0339841795
 30
0.0
 11
151.6304094684
 21
90.3964841795
 31
0.0
  0
LINE
  5
315
330
184
100
AcDbEntity
  8
T_R_LOOSE_GRILLE
  6
Continuous
 62
     7
100
AcDbLine
 10
151.6304094684
 20
90.0714841795
 30
0.0
 11
151.6304094684
 21
89.4464841795
 31
0.0
  0
LINE
  5
316
330
184
100
AcDbEntity
  8
T_R_LOOSE_GRILLE
  6
Continuous
 62
     7
100
AcDbLine
 10
151.6304094684
 20
89.1214841795
 30
0.0
 11
151.6304094684
 21
88.4964841795
 31
0.0
  0
LINE
  5
317
330
184
100
AcDbEntity
  8
T_R_LOOSE_GRILLE
  6
Continuous
 62
     7
100
AcDbLine
 10
151.6304094684
 20
88.1714841795
 30
0.0
 11
151.6304094684
 21
87.5464841795
 31
0.0
  0
LINE
  5
318
330
184
100
AcDbEntity
  8
T_R_LOOSE_GRILLE
  6
Continuous
 62
     7
100
AcDbLine
 10
151.6304094684
 20
87.2214841795
 30
0.0
 11
151.6304094684
 21
86.5964841795
 31
0.0
  0
LINE
  5
319
330
184
100
AcDbEntity
  8
T_R_LOOSE_GRILLE
  6
Continuous
 62
     7
100
AcDbLine
 10
151.6304094684
 20
86.2714841795
 30
0.0
 11
151.6304094684
 21
85.8214841795
 31
0.0
  0
LINE
  5
31A
330
184
100
AcDbEntity
  8
T_R_LOOSE_GRILLE
  6
Continuous
 62
     7
100
AcDbLine
 10
164.5054094684
 20
85.8214841795
 30
0.0
 11
164.5054094684
 21
86.2714841795
 31
0.0
  0
LINE
  5
31B
330
184
100
AcDbEntity
  8
T_R_LOOSE_GRILLE
  6
Continuous
 62
     7
100
AcDbLine
 10
164.5054094684
 20
86.5964841795
 30
0.0
 11
164.5054094684
 21
87.2214841795
 31
0.0
  0
LINE
  5
31C
330
184
100
AcDbEntity
  8
T_R_LOOSE_GRILLE
  6
Continuous
 62
     7
100
AcDbLine
 10
164.5054094684
 20
87.5464841795
 30
0.0
 11
164.5054094684
 21
88.1714841795
 31
0.0
  0
LINE
  5
31D
330
184
100
AcDbEntity
  8
T_R_LOOSE_GRILLE
  6
Continuous
 62
     7
100
AcDbLine
 10
164.5054094684
 20
88.4964841795
 30
0.0
 11
164.5054094684
 21
89.1214841795
 31
0.0
  0
LINE
  5
31E
330
184
100
AcDbEntity
  8
T_R_LOOSE_GRILLE
  6
Continuous
 62
     7
100
AcDbLine
 10
164.5054094684
 20
89.4464841795
 30
0.0
 11
164.5054094684
 21
90.0714841795
 31
0.0
  0
LINE
  5
31F
330
184
100
AcDbEntity
  8
T_R_LOOSE_GRILLE
  6
Continuous
 62
     7
100
AcDbLine
 10
164.5054094684
 20
90.3964841795
 30
0.0
 11
164.5054094684
 21
91.0339841795
 31
0.0
  0
LINE
  5
320
330
184
100
AcDbEntity
  8
T_R_LOOSE_GRILLE
  6
Continuous
 62
     7
100
AcDbLine
 10
164.5054094684
 20
91.9529181624
 30
0.0
 11
164.5054094684
 21
92.0339841795
 31
0.0
  0
LINE
  5
321
330
184
100
AcDbEntity
  8
T_R_LOOSE_GRILLE
  6
Continuous
 62
     7
100
AcDbLine
 10
164.5054094684
 20
92.9529181624
 30
0.0
 11
164.5054094684
 21
93.0339841795
 31
0.0
  0
LINE
  5
322
330
184
100
AcDbEntity
  8
T_R_LOOSE_GRILLE
  6
Continuous
 62
     7
100
AcDbLine
 10
164.5054094684
 20
93.9529181624
 30
0.0
 11
164.5054094684
 21
94.0339841795
 31
0.0
  0
LINE
  5
323
330
184
100
AcDbEntity
  8
T_R_LOOSE_GRILLE
  6
Continuous
 62
     7
100
AcDbLine
 10
164.5054094684
 20
94.9529181624
 30
0.0
 11
164.5054094684
 21
95.0339841795
 31
0.0
  0
LINE
  5
324
330
184
100
AcDbEntity
  8
T_R_LOOSE_GRILLE
  6
Continuous
 62
     7
100
AcDbLine
 10
164.5054094684
 20
95.9529181624
 30
0.0
 11
164.5054094684
 21
96.0339841795
 31
0.0
  0
LINE
  5
325
330
184
100
AcDbEntity
  8
T_R_LOOSE_GRILLE
  6
Continuous
 62
     7
100
AcDbLine
 10
164.5054094684
 20
96.9529181624
 30
0.0
 11
164.5054094684
 21
97.0339841795
 31
0.0
  0
LINE
  5
326
330
184
100
AcDbEntity
  8
T_R_LOOSE_GRILLE
  6
Continuous
 62
     7
100
AcDbLine
 10
164.5054094684
 20
97.9529181624
 30
0.0
 11
164.5054094684
 21
98.0339841795
 31
0.0
  0
LINE
  5
327
330
184
100
AcDbEntity
  8
T_R_LOOSE_GRILLE
  6
Continuous
 62
     7
100
AcDbLine
 10
164.5054094684
 20
98.9529181624
 30
0.0
 11
164.5054094684
 21
99.0339841795
 31
0.0
  0
LINE
  5
328
330
184
100
AcDbEntity
  8
T_R_LOOSE_GRILLE
  6
Continuous
 62
     7
100
AcDbLine
 10
164.5054094684
 20
99.9529181624
 30
0.0
 11
164.5054094684
 21
100.0339841795
 31
0.0
  0
LINE
  5
329
330
184
100
AcDbEntity
  8
T_R_LOOSE_GRILLE
  6
Continuous
 62
     7
100
AcDbLine
 10
164.5054094684
 20
100.9529181624
 30
0.0
 11
164.5054094684
 21
101.0339841795
 31
0.0
  0
LINE
  5
32A
330
184
100
AcDbEntity
  8
T_R_LOOSE_GRILLE
  6
Continuous
 62
     7
100
AcDbLine
 10
164.5054094684
 20
101.9529181624
 30
0.0
 11
164.5054094684
 21
102.0339841795
 31
0.0
  0
LINE
  5
32B
330
184
100
AcDbEntity
  8
T_R_LOOSE_GRILLE
  6
Continuous
 62
     7
100
AcDbLine
 10
164.5054094684
 20
102.9529181624
 30
0.0
 11
164.5054094684
 21
103.0339841795
 31
0.0
  0
LINE
  5
32C
330
184
100
AcDbEntity
  8
T_R_LOOSE_GRILLE
  6
Continuous
 62
     7
100
AcDbLine
 10
164.5054094684
 20
103.9529181624
 30
0.0
 11
164.5054094684
 21
104.4214841795
 31
0.0
  0
LINE
  5
32D
330
184
100
AcDbEntity
  8
T_R_LOOSE_GRILLE
  6
Continuous
 62
     7
100
AcDbLine
 10
164.0804094684
 20
104.4214841795
 30
0.0
 11
164.0804094684
 21
103.9529181624
 31
0.0
  0
LINE
  5
32E
330
184
100
AcDbEntity
  8
T_R_LOOSE_GRILLE
  6
Continuous
 62
     7
100
AcDbLine
 10
164.0804094684
 20
103.0339841795
 30
0.0
 11
164.0804094684
 21
102.9529181624
 31
0.0
  0
LINE
  5
32F
330
184
100
AcDbEntity
  8
T_R_LOOSE_GRILLE
  6
Continuous
 62
     7
100
AcDbLine
 10
164.0804094684
 20
102.0339841795
 30
0.0
 11
164.0804094684
 21
101.9529181624
 31
0.0
  0
LINE
  5
330
330
184
100
AcDbEntity
  8
T_R_LOOSE_GRILLE
  6
Continuous
 62
     7
100
AcDbLine
 10
164.0804094684
 20
101.0339841795
 30
0.0
 11
164.0804094684
 21
100.9529181624
 31
0.0
  0
LINE
  5
331
330
184
100
AcDbEntity
  8
T_R_LOOSE_GRILLE
  6
Continuous
 62
     7
100
AcDbLine
 10
164.0804094684
 20
100.0339841795
 30
0.0
 11
164.0804094684
 21
99.9529181624
 31
0.0
  0
LINE
  5
332
330
184
100
AcDbEntity
  8
T_R_LOOSE_GRILLE
  6
Continuous
 62
     7
100
AcDbLine
 10
164.0804094684
 20
99.0339841795
 30
0.0
 11
164.0804094684
 21
98.9529181624
 31
0.0
  0
LINE
  5
333
330
184
100
AcDbEntity
  8
T_R_LOOSE_GRILLE
  6
Continuous
 62
     7
100
AcDbLine
 10
164.0804094684
 20
98.0339841795
 30
0.0
 11
164.0804094684
 21
97.9529181624
 31
0.0
  0
LINE
  5
334
330
184
100
AcDbEntity
  8
T_R_LOOSE_GRILLE
  6
Continuous
 62
     7
100
AcDbLine
 10
164.0804094684
 20
97.0339841795
 30
0.0
 11
164.0804094684
 21
96.9529181624
 31
0.0
  0
LINE
  5
335
330
184
100
AcDbEntity
  8
T_R_LOOSE_GRILLE
  6
Continuous
 62
     7
100
AcDbLine
 10
164.0804094684
 20
96.0339841795
 30
0.0
 11
164.0804094684
 21
95.9529181624
 31
0.0
  0
LINE
  5
336
330
184
100
AcDbEntity
  8
T_R_LOOSE_GRILLE
  6
Continuous
 62
     7
100
AcDbLine
 10
164.0804094684
 20
95.0339841795
 30
0.0
 11
164.0804094684
 21
94.9529181624
 31
0.0
  0
LINE
  5
337
330
184
100
AcDbEntity
  8
T_R_LOOSE_GRILLE
  6
Continuous
 62
     7
100
AcDbLine
 10
164.0804094684
 20
94.0339841795
 30
0.0
 11
164.0804094684
 21
93.9529181624
 31
0.0
  0
LINE
  5
338
330
184
100
AcDbEntity
  8
T_R_LOOSE_GRILLE
  6
Continuous
 62
     7
100
AcDbLine
 10
164.0804094684
 20
93.0339841795
 30
0.0
 11
164.0804094684
 21
92.9529181624
 31
0.0
  0
LINE
  5
339
330
184
100
AcDbEntity
  8
T_R_LOOSE_GRILLE
  6
Continuous
 62
     7
100
AcDbLine
 10
164.0804094684
 20
92.0339841795
 30
0.0
 11
164.0804094684
 21
91.9529181624
 31
0.0
  0
LINE
  5
33A
330
184
100
AcDbEntity
  8
T_R_LOOSE_GRILLE
  6
Continuous
 62
     7
100
AcDbLine
 10
164.0804094684
 20
91.0339841795
 30
0.0
 11
164.0804094684
 21
90.3964841795
 31
0.0
  0
LINE
  5
33B
330
184
100
AcDbEntity
  8
T_R_LOOSE_GRILLE
  6
Continuous
 62
     7
100
AcDbLine
 10
164.0804094684
 20
90.0714841795
 30
0.0
 11
164.0804094684
 21
89.4464841795
 31
0.0
  0
LINE
  5
33C
330
184
100
AcDbEntity
  8
T_R_LOOSE_GRILLE
  6
Continuous
 62
     7
100
AcDbLine
 10
164.0804094684
 20
89.1214841795
 30
0.0
 11
164.0804094684
 21
88.4964841795
 31
0.0
  0
LINE
  5
33D
330
184
100
AcDbEntity
  8
T_R_LOOSE_GRILLE
  6
Continuous
 62
     7
100
AcDbLine
 10
164.0804094684
 20
88.1714841795
 30
0.0
 11
164.0804094684
 21
87.5464841795
 31
0.0
  0
LINE
  5
33E
330
184
100
AcDbEntity
  8
T_R_LOOSE_GRILLE
  6
Continuous
 62
     7
100
AcDbLine
 10
164.0804094684
 20
87.2214841795
 30
0.0
 11
164.0804094684
 21
86.5964841795
 31
0.0
  0
LINE
  5
33F
330
184
100
AcDbEntity
  8
T_R_LOOSE_GRILLE
  6
Continuous
 62
     7
100
AcDbLine
 10
164.0804094684
 20
86.2714841795
 30
0.0
 11
164.0804094684
 21
85.8214841795
 31
0.0
  0
ENDBLK
  5
341
330
184
100
AcDbEntity
  8
0
100
AcDbBlockEnd
  0
BLOCK
  5
500
330
342
100
AcDbEntity
  8
0
100
AcDbBlockBegin
  2
SE4
 70
     0
 10
0.0
 20
0.0
 30
0.0
  3
SE4
  1

  0
LINE
  5
344
330
342
100
AcDbEntity
  8
6021520
  6
Continuous
 62
     7
100
AcDbLine
 10
165.7429094684
 20
51.0962203707
 30
0.0
 11
165.4679094684
 21
51.0962203707
 31
0.0
  0
LINE
  5
345
330
342
100
AcDbEntity
  8
6021520
  6
Continuous
 62
     7
100
AcDbLine
 10
112.2929094684
 20
51.1417203707
 30
0.0
 11
110.9179094684
 21
51.1417203707
 31
0.0
  0
LINE
  5
346
330
342
100
AcDbEntity
  8
6021520
  6
Continuous
 62
     7
100
AcDbLine
 10
113.3179094684
 20
51.0962203707
 30
0.0
 11
110.9179094684
 21
51.0962203707
 31
0.0
  0
LINE
  5
347
330
342
100
AcDbEntity
  8
6021520
  6
Continuous
 62
     7
100
AcDbLine
 10
110.9179094684
 20
51.0962203707
 30
0.0
 11
110.9179094684
 21
51.1417203707
 31
0.0
  0
LINE
  5
348
330
342
100
AcDbEntity
  8
6021520
  6
Continuous
 62
     7
100
AcDbLine
 10
168.1679094684
 20
51.1417203707
 30
0.0
 11
166.7929094684
 21
51.1417203707
 31
0.0
  0
LINE
  5
349
330
342
100
AcDbEntity
  8
6021520
  6
Continuous
 62
     7
100
AcDbLine
 10
168.1679094684
 20
51.0962203707
 30
0.0
 11
168.1679094684
 21
51.1417203707
 31
0.0
  0
LINE
  5
34A
330
342
100
AcDbEntity
  8
6021520
  6
Continuous
 62
     7
100
AcDbLine
 10
168.1679094684
 20
51.0962203707
 30
0.0
 11
165.7429094684
 21
51.0962203707
 31
0.0
  0
LINE
  5
34B
330
342
100
AcDbEntity
  8
6021520
  6
Continuous
 62
     7
100
AcDbLine
 10
113.3429094684
 20
64.6622203707
 30
0.0
 11
113.3429094684
 21
64.7532203707
 31
0.0
  0
LINE
  5
34C
330
342
100
AcDbEntity
  8
6021520
  6
Continuous
 62
     7
100
AcDbLine
 10
113.3429094684
 20
64.7532203707
 30
0.0
 11
113.3429094684
 21
64.7941606447
 31
0.0
  0
LINE
  5
34D
330
342
100
AcDbEntity
  8
6021520
  6
Continuous
 62
     7
100
AcDbLine
 10
165.7429094684
 20
64.7532203707
 30
0.0
 11
165.7429094684
 21
64.6622203707
 31
0.0
  0
LINE
  5
34E
330
342
100
AcDbEntity
  8
6021520
  6
Continuous
 62
     7
100
AcDbLine
 10
165.7429094684
 20
64.6622203707
 30
0.0
 11
113.3429094684
 21
64.6622203707
 31
0.0
  0
LINE
  5
34F
330
342
100
AcDbEntity
  8
6021520
  6
Continuous
 62
     7
100
AcDbLine
 10
113.3429094684
 20
64.7941606447
 30
0.0
 11
110.9179094684
 21
64.7941606447
 31
0.0
  0
LINE
  5
350
330
342
100
AcDbEntity
  8
6021520
  6
Continuous
 62
     7
100
AcDbLine
 10
168.1679094684
 20
65.8622203707
 30
0.0
 11
168.1679094684
 21
65.7712203707
 31
0.0
  0
LINE
  5
351
330
342
100
AcDbEntity
  8
6021520
  6
Continuous
 62
     7
100
AcDbLine
 10
165.7429094684
 20
64.7532203707
 30
0.0
 11
165.7429094684
 21
64.7941606447
 31
0.0
  0
LINE
  5
352
330
342
100
AcDbEntity
  8
6021520
  6
Continuous
 62
     7
100
AcDbLine
 10
165.7429094684
 20
64.7941606447
 30
0.0
 11
168.1679094684
 21
64.7941606447
 31
0.0
  0
LINE
  5
353
330
342
100
AcDbEntity
  8
6021520
  6
Continuous
 62
     7
100
AcDbLine
 10
168.1679094684
 20
64.7941606447
 30
0.0
 11
168.1679094684
 21
65.7712203707
 31
0.0
  0
LINE
  5
354
330
342
100
AcDbEntity
  8
6021520
  6
Continuous
 62
     7
100
AcDbLine
 10
110.9179094684
 20
65.7712203707
 30
0.0
 11
110.9179094684
 21
64.7941606447
 31
0.0
  0
LINE
  5
355
330
342
100
AcDbEntity
  8
6021520
  6
Continuous
 62
     7
100
AcDbLine
 10
110.9179094684
 20
65.7712203707
 30
0.0
 11
110.9179094684
 21
65.8622203707
 31
0.0
  0
LINE
  5
356
330
342
100
AcDbEntity
  8
6021520
  6
Continuous
 62
     7
100
AcDbLine
 10
110.9179094684
 20
65.8622203707
 30
0.0
 11
168.1679094684
 21
65.8622203707
 31
0.0
  0
LINE
  5
357
330
342
100
AcDbEntity
  8
6021520
  6
Continuous
 62
     7
100
AcDbLine
 10
168.1679094684
 20
51.1417203707
 30
0.0
 11
168.1679094684
 21
51.1687203707
 31
0.0
  0
LINE
  5
358
330
342
100
AcDbEntity
  8
6021520
  6
Continuous
 62
     7
100
AcDbLine
 10
110.9179094684
 20
51.1687203707
 30
0.0
 11
110.9179094684
 21
51.1417203707
 31
0.0
  0
LINE
  5
359
330
342
100
AcDbEntity
  8
6021520
  6
Continuous
 62
     7
100
AcDbLine
 10
165.7429094684
 20
51.1212203707
 30
0.0
 11
165.7429094684
 21
51.0962203707
 31
0.0
  0
LINE
  5
35A
330
342
100
AcDbEntity
  8
6021520
  6
Continuous
 62
     7
100
AcDbLine
 10
114.7081594684
 20
65.9082203707
 30
0.0
 11
115.9776594684
 21
65.9082203707
 31
0.0
  0
LINE
  5
35B
330
342
100
AcDbEntity
  8
6021520
  6
Continuous
 62
     7
100
AcDbLine
 10
117.2081594684
 20
65.9082203707
 30
0.0
 11
118.4776594684
 21
65.9082203707
 31
0.0
  0
ARC
  5
35C
330
342
100
AcDbEntity
  8
6021520
  6
Continuous
 62
     7
100
AcDbCircle
 10
161.8379094684
 20
64.6917203707
 30
0.0
 40
0.3575000000000009
100
AcDbArc
 50
184.7332854805
 51
191.3734336887
  0
ARC
  5
35D
330
342
100
AcDbEntity
  8
6021520
  6
Continuous
 62
     7
100
AcDbCircle
 10
162.1229094684
 20
64.6917203707
 30
0.0
 40
0.3575000000000002
100
AcDbArc
 50
348.6265663113
 51
355.2667145195
  0
ARC
  5
35E
330
342
100
AcDbEntity
  8
6021520
  6
Continuous
 62
     7
100
AcDbCircle
 10
116.9629094684
 20
64.6917203707
 30
0.0
 40
0.3575000000000009
100
AcDbArc
 50
184.7332854805
 51
191.3734336887
  0
ARC
  5
35F
330
342
100
AcDbEntity
  8
6021520
  6
Continuous
 62
     7
100
AcDbCircle
 10
117.2479094684
 20
64.6917203707
 30
0.0
 40
0.3574999999999988
100
AcDbArc
 50
348.6265663113
 51
355.2667145195
  0
LINE
  5
360
330
342
100
AcDbEntity
  8
6021520
  6
Continuous
 62
     7
100
AcDbLine
 10
115.9776594684
 20
65.8622203707
 30
0.0
 11
115.9776594684
 21
65.9082203707
 31
0.0
  0
LINE
  5
361
330
342
100
AcDbEntity
  8
6021520
  6
Continuous
 62
     7
100
AcDbLine
 10
114.7081594684
 20
65.9082203707
 30
0.0
 11
114.7081594684
 21
65.8622203707
 31
0.0
  0
LINE
  5
362
330
342
100
AcDbEntity
  8
6021520
  6
Continuous
 62
     7
100
AcDbLine
 10
118.4776594684
 20
65.8622203707
 30
0.0
 11
118.4776594684
 21
65.9082203707
 31
0.0
  0
LINE
  5
363
330
342
100
AcDbEntity
  8
6021520
  6
Continuous
 62
     7
100
AcDbLine
 10
117.2081594684
 20
65.9082203707
 30
0.0
 11
117.2081594684
 21
65.8622203707
 31
0.0
  0
LINE
  5
364
330
342
100
AcDbEntity
  8
6601630
  6
Continuous
 62
     7
100
AcDbLine
 10
110.8179094684
 20
65.6947203707
 30
0.0
 11
110.8179094684
 21
51.2887203707
 31
0.0
  0
LINE
  5
365
330
342
100
AcDbEntity
  8
6601630
  6
Continuous
 62
     7
100
AcDbLine
 10
110.8342543691
 20
51.2277203707
 30
0.0
 11
110.9399094684
 21
51.2277203707
 31
0.0
  0
LINE
  5
366
330
342
100
AcDbEntity
  8
6601630
  6
Continuous
 62
     7
100
AcDbLine
 10
110.9399094684
 20
51.2277203707
 30
0.0
 11
112.2929094684
 21
51.2277203707
 31
0.0
  0
ARC
  5
367
330
342
100
AcDbEntity
  8
6601630
  6
Continuous
 62
     7
100
AcDbCircle
 10
110.9399094684
 20
51.2887203707
 30
0.0
 40
0.1219999999999999
100
AcDbArc
 50
210.0
 51
270.0
  0
ARC
  5
368
330
342
100
AcDbEntity
  8
6601630
  6
Continuous
 62
     7
100
AcDbCircle
 10
110.9399094684
 20
51.2887203707
 30
0.0
 40
0.1220000000000215
100
AcDbArc
 50
180.0
 51
210.0
  0
LINE
  5
369
330
342
100
AcDbEntity
  8
6601630
  6
Continuous
 62
     7
100
AcDbLine
 10
110.9399094684
 20
51.1667203707
 30
0.0
 11
112.2929094684
 21
51.1667203707
 31
0.0
  0
LINE
  5
36A
330
342
100
AcDbEntity
  8
6601630
  6
Continuous
 62
     7
100
AcDbLine
 10
110.9399094684
 20
51.2278203707
 30
0.0
 11
110.8342543691
 21
51.2278203707
 31
0.0
  0
ELLIPSE
  5
36B
330
342
100
AcDbEntity
  8
6601630
  6
Continuous
 62
     7
100
AcDbEllipse
 10
110.9399094684
 20
51.2887203707
 30
0.0
 11
0.1219999999999999
 21
8.965050923848140E-13
 31
0.0
210
0.0
220
0.0
230
1.0
 40
0.9983606557
 41
3.141592653589783
 42
3.66519142918084
  0
LINE
  5
36C
330
342
100
AcDbEntity
  8
6601630
  6
Continuous
 62
     7
100
AcDbLine
 10
110.9179094684
 20
65.7556203707
 30
0.0
 11
110.8342543691
 21
65.7556203707
 31
0.0
  0
ELLIPSE
  5
36D
330
342
100
AcDbEntity
  8
6601630
  6
Continuous
 62
     7
100
AcDbEllipse
 10
110.9399094684
 20
65.6947203707
 30
0.0
 11
0.1219999999999555
 21
1.891542478205110E-12
 31
0.0
210
0.0
220
0.0
230
1.0
 40
0.9983606557
 41
2.617993877976095
 42
3.141592653589781
  0
LINE
  5
36E
330
342
100
AcDbEntity
  8
6601630
  6
Continuous
 62
     7
100
AcDbLine
 10
112.2929094684
 20
51.2278203707
 30
0.0
 11
110.9399094684
 21
51.2278203707
 31
0.0
  0
LINE
  5
36F
330
342
100
AcDbEntity
  8
6601630
  6
Continuous
 62
     7
100
AcDbLine
 10
113.3179094684
 20
64.7941606447
 30
0.0
 11
113.3179094684
 21
64.5073398227
 31
0.0
  0
ARC
  5
370
330
342
100
AcDbEntity
  8
6601630
  6
Continuous
 62
     7
100
AcDbCircle
 10
110.9399094684
 20
65.6947203707
 30
0.0
 40
0.1220000000000013
100
AcDbArc
 50
100.3888578155
 51
150.0
  0
ARC
  5
371
330
342
100
AcDbEntity
  8
6601630
  6
Continuous
 62
     7
100
AcDbCircle
 10
110.9399094684
 20
65.6947203707
 30
0.0
 40
0.1220000000000112
100
AcDbArc
 50
150.0
 51
180.0
  0
LINE
  5
372
330
342
100
AcDbEntity
  8
6601630
  6
Continuous
 62
     7
100
AcDbLine
 10
110.8342543691
 20
65.7557203707
 30
0.0
 11
110.9179094684
 21
65.7557203707
 31
0.0
  0
LINE
  5
373
330
342
100
AcDbEntity
  8
6601630
  6
Continuous
 62
     7
100
AcDbLine
 10
112.7692434787
 20
63.4762618859
 30
0.0
 11
112.7079725724
 21
63.4408871117
 31
0.0
  0
LINE
  5
374
330
342
100
AcDbEntity
  8
6601630
  6
Continuous
 62
     7
100
AcDbLine
 10
112.9278463644
 20
63.4408871117
 30
0.0
 11
112.8665754581
 21
63.4762618859
 31
0.0
  0
LINE
  5
375
330
342
100
AcDbEntity
  8
6601630
  6
Continuous
 62
     7
100
AcDbLine
 10
112.7692434787
 20
57.9762618859
 30
0.0
 11
112.7079725724
 21
57.9408871117
 31
0.0
  0
LINE
  5
376
330
342
100
AcDbEntity
  8
6601630
  6
Continuous
 62
     7
100
AcDbLine
 10
112.9278463644
 20
57.9408871117
 30
0.0
 11
112.8665754581
 21
57.9762618859
 31
0.0
  0
LINE
  5
377
330
342
100
AcDbEntity
  8
6601630
  6
Continuous
 62
     7
100
AcDbLine
 10
112.7692434787
 20
52.4762618859
 30
0.0
 11
112.7079725724
 21
52.4408871117
 31
0.0
  0
LINE
  5
378
330
342
100
AcDbEntity
  8
6601630
  6
Continuous
 62
     7
100
AcDbLine
 10
112.9278463644
 20
52.4408871117
 30
0.0
 11
112.8665754581
 21
52.4762618859
 31
0.0
  0
LINE
  5
379
330
342
100
AcDbEntity
  8
6601635
  6
Continuous
 62
     7
100
AcDbLine
 10
168.2679094684
 20
65.6947203707
 30
0.0
 11
168.2679094684
 21
51.2887203707
 31
0.0
  0
LINE
  5
37A
330
342
100
AcDbEntity
  8
6601635
  6
Continuous
 62
     7
100
AcDbLine
 10
168.2515645677
 20
51.2277203707
 30
0.0
 11
168.1459094684
 21
51.2277203707
 31
0.0
  0
LINE
  5
37B
330
342
100
AcDbEntity
  8
6601635
  6
Continuous
 62
     7
100
AcDbLine
 10
168.1459094684
 20
51.2277203707
 30
0.0
 11
166.7929094684
 21
51.2277203707
 31
0.0
  0
ARC
  5
37C
330
342
100
AcDbEntity
  8
6601635
  6
Continuous
 62
     7
100
AcDbCircle
 10
168.1459094684
 20
51.2887203707
 30
0.0
 40
0.1219999999999999
100
AcDbArc
 50
270.0
 51
330.0
  0
ARC
  5
37D
330
342
100
AcDbEntity
  8
6601635
  6
Continuous
 62
     7
100
AcDbCircle
 10
168.1459094684
 20
51.2887203707
 30
0.0
 40
0.1220000000000003
100
AcDbArc
 50
330.0
 51
0.0
  0
LINE
  5
37E
330
342
100
AcDbEntity
  8
6601635
  6
Continuous
 62
     7
100
AcDbLine
 10
168.1459094684
 20
51.1667203707
 30
0.0
 11
166.7929094684
 21
51.1667203707
 31
0.0
  0
LINE
  5
37F
330
342
100
AcDbEntity
  8
6601635
  6
Continuous
 62
     7
100
AcDbLine
 10
168.1459094684
 20
51.2278203707
 30
0.0
 11
168.2515645677
 21
51.2278203707
 31
0.0
  0
ELLIPSE
  5
380
330
342
100
AcDbEntity
  8
6601635
  6
Continuous
 62
     7
100
AcDbEllipse
 10
168.1459094684
 20
51.2887203707
 30
0.0
 11
-0.1220000000000212
 21
1.186550857568136E-12
 31
0.0
210
0.0
220
0.0
230
1.0
 40
0.9983606557
 41
2.617993878000817
 42
3.141592653589793
  0
LINE
  5
381
330
342
100
AcDbEntity
  8
6601635
  6
Continuous
 62
     7
100
AcDbLine
 10
168.1679094684
 20
65.7556203707
 30
0.0
 11
168.2515645677
 21
65.7556203707
 31
0.0
  0
ELLIPSE
  5
382
330
342
100
AcDbEntity
  8
6601635
  6
Continuous
 62
     7
100
AcDbEllipse
 10
168.1459094684
 20
65.6947203707
 30
0.0
 11
-0.1220000000000273
 21
4.746203430272544E-13
 31
0.0
210
0.0
220
0.0
230
1.0
 40
0.9983606557
 41
3.141592653589839
 42
3.665191429191984
  0
LINE
  5
383
330
342
100
AcDbEntity
  8
6601635
  6
Continuous
 62
     7
100
AcDbLine
 10
166.7929094684
 20
51.2278203707
 30
0.0
 11
168.1459094684
 21
51.2278203707
 31
0.0
  0
LINE
  5
384
330
342
100
AcDbEntity
  8
6601635
  6
Continuous
 62
     7
100
AcDbLine
 10
165.7679094684
 20
64.7941606447
 30
0.0
 11
165.7679094684
 21
64.5073398227
 31
0.0
  0
ARC
  5
385
330
342
100
AcDbEntity
  8
6601635
  6
Continuous
 62
     7
100
AcDbCircle
 10
168.1459094684
 20
65.6947203707
 30
0.0
 40
0.1220000000000013
100
AcDbArc
 50
30.0
 51
79.6111421845
  0
ARC
  5
386
330
342
100
AcDbEntity
  8
6601635
  6
Continuous
 62
     7
100
AcDbCircle
 10
168.1459094684
 20
65.6947203707
 30
0.0
 40
0.122000000000001
100
AcDbArc
 50
0.0
 51
30.0
  0
LINE
  5
387
330
342
100
AcDbEntity
  8
6601635
  6
Continuous
 62
     7
100
AcDbLine
 10
168.2515645677
 20
65.7557203707
 30
0.0
 11
168.1679094684
 21
65.7557203707
 31
0.0
  0
LINE
  5
388
330
342
100
AcDbEntity
  8
6601635
  6
Continuous
 62
     7
100
AcDbLine
 10
166.3165754581
 20
63.4762618859
 30
0.0
 11
166.3778463644
 21
63.4408871117
 31
0.0
  0
LINE
  5
389
330
342
100
AcDbEntity
  8
6601635
  6
Continuous
 62
     7
100
AcDbLine
 10
166.1579725724
 20
63.4408871117
 30
0.0
 11
166.2192434787
 21
63.4762618859
 31
0.0
  0
LINE
  5
38A
330
342
100
AcDbEntity
  8
6601635
  6
Continuous
 62
     7
100
AcDbLine
 10
166.3165754581
 20
57.9762618859
 30
0.0
 11
166.3778463644
 21
57.9408871117
 31
0.0
  0
LINE
  5
38B
330
342
100
AcDbEntity
  8
6601635
  6
Continuous
 62
     7
100
AcDbLine
 10
166.1579725724
 20
57.9408871117
 30
0.0
 11
166.2192434787
 21
57.9762618859
 31
0.0
  0
LINE
  5
38C
330
342
100
AcDbEntity
  8
6601635
  6
Continuous
 62
     7
100
AcDbLine
 10
166.3165754581
 20
52.4762618859
 30
0.0
 11
166.3778463644
 21
52.4408871117
 31
0.0
  0
LINE
  5
38D
330
342
100
AcDbEntity
  8
6601635
  6
Continuous
 62
     7
100
AcDbLine
 10
166.1579725724
 20
52.4408871117
 30
0.0
 11
166.2192434787
 21
52.4762618859
 31
0.0
  0
LINE
  5
38E
330
342
100
AcDbEntity
  8
6301665
  6
Continuous
 62
     7
100
AcDbLine
 10
110.9789094684
 20
51.2278203707
 30
0.0
 11
110.9789094684
 21
51.2277203707
 31
0.0
  0
LINE
  5
38F
330
342
100
AcDbEntity
  8
6301665
  6
Continuous
 62
     7
100
AcDbLine
 10
168.1069094684
 20
51.2278203707
 30
0.0
 11
168.1069094684
 21
51.2277203707
 31
0.0
  0
LINE
  5
390
330
342
100
AcDbEntity
  8
6802420
  6
Continuous
 62
     7
100
AcDbLine
 10
112.2929094684
 20
64.5073398227
 30
0.0
 11
112.2929094684
 21
51.2122203707
 31
0.0
  0
LINE
  5
391
330
342
100
AcDbEntity
  8
6802420
  6
Continuous
 62
     7
100
AcDbLine
 10
166.7929094684
 20
51.2122203707
 30
0.0
 11
166.7929094684
 21
64.5073398227
 31
0.0
  0
LINE
  5
392
330
342
100
AcDbEntity
  8
6802420
  6
Continuous
 62
     7
100
AcDbLine
 10
166.7929094684
 20
51.1212203707
 30
0.0
 11
112.2929094684
 21
51.1212203707
 31
0.0
  0
LINE
  5
393
330
342
100
AcDbEntity
  8
6802420
  6
Continuous
 62
     7
100
AcDbLine
 10
166.7929094684
 20
51.1212203707
 30
0.0
 11
166.7929094684
 21
51.2122203707
 31
0.0
  0
LINE
  5
394
330
342
100
AcDbEntity
  8
6802420
  6
Continuous
 62
     7
100
AcDbLine
 10
112.2929094684
 20
51.2122203707
 30
0.0
 11
112.2929094684
 21
51.1212203707
 31
0.0
  0
LINE
  5
395
330
342
100
AcDbEntity
  8
6802420
  6
Continuous
 62
     7
100
AcDbLine
 10
118.9429094684
 20
61.2462203707
 30
0.0
 11
120.1929094684
 21
61.2462203707
 31
0.0
  0
LINE
  5
396
330
342
100
AcDbEntity
  8
6802420
  6
Continuous
 62
     7
100
AcDbLine
 10
120.1929094684
 20
61.2462203707
 30
0.0
 11
120.1929094684
 21
62.4962203707
 31
0.0
  0
LINE
  5
397
330
342
100
AcDbEntity
  8
6802420
  6
Continuous
 62
     7
100
AcDbLine
 10
120.1929094684
 20
62.4962203707
 30
0.0
 11
118.9429094684
 21
62.4962203707
 31
0.0
  0
LINE
  5
398
330
342
100
AcDbEntity
  8
6802420
  6
Continuous
 62
     7
100
AcDbLine
 10
118.9429094684
 20
62.4962203707
 30
0.0
 11
118.9429094684
 21
61.2462203707
 31
0.0
  0
LINE
  5
399
330
342
100
AcDbEntity
  8
6802420
  6
Continuous
 62
     7
100
AcDbLine
 10
118.9429094684
 20
59.2462203707
 30
0.0
 11
120.1929094684
 21
59.2462203707
 31
0.0
  0
LINE
  5
39A
330
342
100
AcDbEntity
  8
6802420
  6
Continuous
 62
     7
100
AcDbLine
 10
120.1929094684
 20
59.2462203707
 30
0.0
 11
120.1929094684
 21
60.4962203707
 31
0.0
  0
LINE
  5
39B
330
342
100
AcDbEntity
  8
6802420
  6
Continuous
 62
     7
100
AcDbLine
 10
120.1929094684
 20
60.4962203707
 30
0.0
 11
118.9429094684
 21
60.4962203707
 31
0.0
  0
LINE
  5
39C
330
342
100
AcDbEntity
  8
6802420
  6
Continuous
 62
     7
100
AcDbLine
 10
118.9429094684
 20
60.4962203707
 30
0.0
 11
118.9429094684
 21
59.2462203707
 31
0.0
  0
LINE
  5
39D
330
342
100
AcDbEntity
  8
6802420
  6
Continuous
 62
     7
100
AcDbLine
 10
118.9429094684
 20
57.2462203707
 30
0.0
 11
120.1929094684
 21
57.2462203707
 31
0.0
  0
LINE
  5
39E
330
342
100
AcDbEntity
  8
6802420
  6
Continuous
 62
     7
100
AcDbLine
 10
120.1929094684
 20
57.2462203707
 30
0.0
 11
120.1929094684
 21
58.4962203707
 31
0.0
  0
LINE
  5
39F
330
342
100
AcDbEntity
  8
6802420
  6
Continuous
 62
     7
100
AcDbLine
 10
120.1929094684
 20
58.4962203707
 30
0.0
 11
118.9429094684
 21
58.4962203707
 31
0.0
  0
LINE
  5
3A0
330
342
100
AcDbEntity
  8
6802420
  6
Continuous
 62
     7
100
AcDbLine
 10
118.9429094684
 20
58.4962203707
 30
0.0
 11
118.9429094684
 21
57.2462203707
 31
0.0
  0
LINE
  5
3A1
330
342
100
AcDbEntity
  8
6802420
  6
Continuous
 62
     7
100
AcDbLine
 10
118.9429094684
 20
55.2462203707
 30
0.0
 11
120.1929094684
 21
55.2462203707
 31
0.0
  0
LINE
  5
3A2
330
342
100
AcDbEntity
  8
6802420
  6
Continuous
 62
     7
100
AcDbLine
 10
120.1929094684
 20
55.2462203707
 30
0.0
 11
120.1929094684
 21
56.4962203707
 31
0.0
  0
LINE
  5
3A3
330
342
100
AcDbEntity
  8
6802420
  6
Continuous
 62
     7
100
AcDbLine
 10
120.1929094684
 20
56.4962203707
 30
0.0
 11
118.9429094684
 21
56.4962203707
 31
0.0
  0
LINE
  5
3A4
330
342
100
AcDbEntity
  8
6802420
  6
Continuous
 62
     7
100
AcDbLine
 10
118.9429094684
 20
56.4962203707
 30
0.0
 11
118.9429094684
 21
55.2462203707
 31
0.0
  0
LINE
  5
3A5
330
342
100
AcDbEntity
  8
6802420
  6
Continuous
 62
     7
100
AcDbLine
 10
118.9429094684
 20
53.2462203707
 30
0.0
 11
120.1929094684
 21
53.2462203707
 31
0.0
  0
LINE
  5
3A6
330
342
100
AcDbEntity
  8
6802420
  6
Continuous
 62
     7
100
AcDbLine
 10
120.1929094684
 20
53.2462203707
 30
0.0
 11
120.1929094684
 21
54.4962203707
 31
0.0
  0
LINE
  5
3A7
330
342
100
AcDbEntity
  8
6802420
  6
Continuous
 62
     7
100
AcDbLine
 10
120.1929094684
 20
54.4962203707
 30
0.0
 11
118.9429094684
 21
54.4962203707
 31
0.0
  0
LINE
  5
3A8
330
342
100
AcDbEntity
  8
6802420
  6
Continuous
 62
     7
100
AcDbLine
 10
118.9429094684
 20
54.4962203707
 30
0.0
 11
118.9429094684
 21
53.2462203707
 31
0.0
  0
LINE
  5
3A9
330
342
100
AcDbEntity
  8
6802420
  6
Continuous
 62
     7
100
AcDbLine
 10
121.4304094684
 20
61.2462203707
 30
0.0
 11
122.6804094684
 21
61.2462203707
 31
0.0
  0
LINE
  5
3AA
330
342
100
AcDbEntity
  8
6802420
  6
Continuous
 62
     7
100
AcDbLine
 10
122.6804094684
 20
61.2462203707
 30
0.0
 11
122.6804094684
 21
62.4962203707
 31
0.0
  0
LINE
  5
3AB
330
342
100
AcDbEntity
  8
6802420
  6
Continuous
 62
     7
100
AcDbLine
 10
122.6804094684
 20
62.4962203707
 30
0.0
 11
121.4304094684
 21
62.4962203707
 31
0.0
  0
LINE
  5
3AC
330
342
100
AcDbEntity
  8
6802420
  6
Continuous
 62
     7
100
AcDbLine
 10
121.4304094684
 20
62.4962203707
 30
0.0
 11
121.4304094684
 21
61.2462203707
 31
0.0
  0
LINE
  5
3AD
330
342
100
AcDbEntity
  8
6802420
  6
Continuous
 62
     7
100
AcDbLine
 10
121.4304094684
 20
59.2462203707
 30
0.0
 11
122.6804094684
 21
59.2462203707
 31
0.0
  0
LINE
  5
3AE
330
342
100
AcDbEntity
  8
6802420
  6
Continuous
 62
     7
100
AcDbLine
 10
122.6804094684
 20
59.2462203707
 30
0.0
 11
122.6804094684
 21
60.4962203707
 31
0.0
  0
LINE
  5
3AF
330
342
100
AcDbEntity
  8
6802420
  6
Continuous
 62
     7
100
AcDbLine
 10
122.6804094684
 20
60.4962203707
 30
0.0
 11
121.4304094684
 21
60.4962203707
 31
0.0
  0
LINE
  5
3B0
330
342
100
AcDbEntity
  8
6802420
  6
Continuous
 62
     7
100
AcDbLine
 10
121.4304094684
 20
60.4962203707
 30
0.0
 11
121.4304094684
 21
59.2462203707
 31
0.0
  0
LINE
  5
3B1
330
342
100
AcDbEntity
  8
6802420
  6
Continuous
 62
     7
100
AcDbLine
 10
121.4304094684
 20
57.2462203707
 30
0.0
 11
122.6804094684
 21
57.2462203707
 31
0.0
  0
LINE
  5
3B2
330
342
100
AcDbEntity
  8
6802420
  6
Continuous
 62
     7
100
AcDbLine
 10
122.6804094684
 20
57.2462203707
 30
0.0
 11
122.6804094684
 21
58.4962203707
 31
0.0
  0
LINE
  5
3B3
330
342
100
AcDbEntity
  8
6802420
  6
Continuous
 62
     7
100
AcDbLine
 10
122.6804094684
 20
58.4962203707
 30
0.0
 11
121.4304094684
 21
58.4962203707
 31
0.0
  0
LINE
  5
3B4
330
342
100
AcDbEntity
  8
6802420
  6
Continuous
 62
     7
100
AcDbLine
 10
121.4304094684
 20
58.4962203707
 30
0.0
 11
121.4304094684
 21
57.2462203707
 31
0.0
  0
LINE
  5
3B5
330
342
100
AcDbEntity
  8
6802420
  6
Continuous
 62
     7
100
AcDbLine
 10
121.4304094684
 20
55.2462203707
 30
0.0
 11
122.6804094684
 21
55.2462203707
 31
0.0
  0
LINE
  5
3B6
330
342
100
AcDbEntity
  8
6802420
  6
Continuous
 62
     7
100
AcDbLine
 10
122.6804094684
 20
55.2462203707
 30
0.0
 11
122.6804094684
 21
56.4962203707
 31
0.0
  0
LINE
  5
3B7
330
342
100
AcDbEntity
  8
6802420
  6
Continuous
 62
     7
100
AcDbLine
 10
122.6804094684
 20
56.4962203707
 30
0.0
 11
121.4304094684
 21
56.4962203707
 31
0.0
  0
LINE
  5
3B8
330
342
100
AcDbEntity
  8
6802420
  6
Continuous
 62
     7
100
AcDbLine
 10
121.4304094684
 20
56.4962203707
 30
0.0
 11
121.4304094684
 21
55.2462203707
 31
0.0
  0
LINE
  5
3B9
330
342
100
AcDbEntity
  8
6802420
  6
Continuous
 62
     7
100
AcDbLine
 10
121.4304094684
 20
53.2462203707
 30
0.0
 11
122.6804094684
 21
53.2462203707
 31
0.0
  0
LINE
  5
3BA
330
342
100
AcDbEntity
  8
6802420
  6
Continuous
 62
     7
100
AcDbLine
 10
122.6804094684
 20
53.2462203707
 30
0.0
 11
122.6804094684
 21
54.4962203707
 31
0.0
  0
LINE
  5
3BB
330
342
100
AcDbEntity
  8
6802420
  6
Continuous
 62
     7
100
AcDbLine
 10
122.6804094684
 20
54.4962203707
 30
0.0
 11
121.4304094684
 21
54.4962203707
 31
0.0
  0
LINE
  5
3BC
330
342
100
AcDbEntity
  8
6802420
  6
Continuous
 62
     7
100
AcDbLine
 10
121.4304094684
 20
54.4962203707
 30
0.0
 11
121.4304094684
 21
53.2462203707
 31
0.0
  0
LINE
  5
3BD
330
342
100
AcDbEntity
  8
6802420
  6
Continuous
 62
     7
100
AcDbLine
 10
123.9179094684
 20
61.2462203707
 30
0.0
 11
125.1679094684
 21
61.2462203707
 31
0.0
  0
LINE
  5
3BE
330
342
100
AcDbEntity
  8
6802420
  6
Continuous
 62
     7
100
AcDbLine
 10
125.1679094684
 20
61.2462203707
 30
0.0
 11
125.1679094684
 21
62.4962203707
 31
0.0
  0
LINE
  5
3BF
330
342
100
AcDbEntity
  8
6802420
  6
Continuous
 62
     7
100
AcDbLine
 10
125.1679094684
 20
62.4962203707
 30
0.0
 11
123.9179094684
 21
62.4962203707
 31
0.0
  0
LINE
  5
3C0
330
342
100
AcDbEntity
  8
6802420
  6
Continuous
 62
     7
100
AcDbLine
 10
123.9179094684
 20
62.4962203707
 30
0.0
 11
123.9179094684
 21
61.2462203707
 31
0.0
  0
LINE
  5
3C1
330
342
100
AcDbEntity
  8
6802420
  6
Continuous
 62
     7
100
AcDbLine
 10
123.9179094684
 20
59.2462203707
 30
0.0
 11
125.1679094684
 21
59.2462203707
 31
0.0
  0
LINE
  5
3C2
330
342
100
AcDbEntity
  8
6802420
  6
Continuous
 62
     7
100
AcDbLine
 10
125.1679094684
 20
59.2462203707
 30
0.0
 11
125.1679094684
 21
60.4962203707
 31
0.0
  0
LINE
  5
3C3
330
342
100
AcDbEntity
  8
6802420
  6
Continuous
 62
     7
100
AcDbLine
 10
125.1679094684
 20
60.4962203707
 30
0.0
 11
123.9179094684
 21
60.4962203707
 31
0.0
  0
LINE
  5
3C4
330
342
100
AcDbEntity
  8
6802420
  6
Continuous
 62
     7
100
AcDbLine
 10
123.9179094684
 20
60.4962203707
 30
0.0
 11
123.9179094684
 21
59.2462203707
 31
0.0
  0
LINE
  5
3C5
330
342
100
AcDbEntity
  8
6802420
  6
Continuous
 62
     7
100
AcDbLine
 10
123.9179094684
 20
57.2462203707
 30
0.0
 11
125.1679094684
 21
57.2462203707
 31
0.0
  0
LINE
  5
3C6
330
342
100
AcDbEntity
  8
6802420
  6
Continuous
 62
     7
100
AcDbLine
 10
125.1679094684
 20
57.2462203707
 30
0.0
 11
125.1679094684
 21
58.4962203707
 31
0.0
  0
LINE
  5
3C7
330
342
100
AcDbEntity
  8
6802420
  6
Continuous
 62
     7
100
AcDbLine
 10
125.1679094684
 20
58.4962203707
 30
0.0
 11
123.9179094684
 21
58.4962203707
 31
0.0
  0
LINE
  5
3C8
330
342
100
AcDbEntity
  8
6802420
  6
Continuous
 62
     7
100
AcDbLine
 10
123.9179094684
 20
58.4962203707
 30
0.0
 11
123.9179094684
 21
57.2462203707
 31
0.0
  0
LINE
  5
3C9
330
342
100
AcDbEntity
  8
6802420
  6
Continuous
 62
     7
100
AcDbLine
 10
123.9179094684
 20
55.2462203707
 30
0.0
 11
125.1679094684
 21
55.2462203707
 31
0.0
  0
LINE
  5
3CA
330
342
100
AcDbEntity
  8
6802420
  6
Continuous
 62
     7
100
AcDbLine
 10
125.1679094684
 20
55.2462203707
 30
0.0
 11
125.1679094684
 21
56.4962203707
 31
0.0
  0
LINE
  5
3CB
330
342
100
AcDbEntity
  8
6802420
  6
Continuous
 62
     7
100
AcDbLine
 10
125.1679094684
 20
56.4962203707
 30
0.0
 11
123.9179094684
 21
56.4962203707
 31
0.0
  0
LINE
  5
3CC
330
342
100
AcDbEntity
  8
6802420
  6
Continuous
 62
     7
100
AcDbLine
 10
123.9179094684
 20
56.4962203707
 30
0.0
 11
123.9179094684
 21
55.2462203707
 31
0.0
  0
LINE
  5
3CD
330
342
100
AcDbEntity
  8
6802420
  6
Continuous
 62
     7
100
AcDbLine
 10
123.9179094684
 20
53.2462203707
 30
0.0
 11
125.1679094684
 21
53.2462203707
 31
0.0
  0
LINE
  5
3CE
330
342
100
AcDbEntity
  8
6802420
  6
Continuous
 62
     7
100
AcDbLine
 10
125.1679094684
 20
53.2462203707
 30
0.0
 11
125.1679094684
 21
54.4962203707
 31
0.0
  0
LINE
  5
3CF
330
342
100
AcDbEntity
  8
6802420
  6
Continuous
 62
     7
100
AcDbLine
 10
125.1679094684
 20
54.4962203707
 30
0.0
 11
123.9179094684
 21
54.4962203707
 31
0.0
  0
LINE
  5
3D0
330
342
100
AcDbEntity
  8
6802420
  6
Continuous
 62
     7
100
AcDbLine
 10
123.9179094684
 20
54.4962203707
 30
0.0
 11
123.9179094684
 21
53.2462203707
 31
0.0
  0
LINE
  5
3D1
330
342
100
AcDbEntity
  8
6802420
  6
Continuous
 62
     7
100
AcDbLine
 10
126.4054094684
 20
61.2462203707
 30
0.0
 11
127.6554094684
 21
61.2462203707
 31
0.0
  0
LINE
  5
3D2
330
342
100
AcDbEntity
  8
6802420
  6
Continuous
 62
     7
100
AcDbLine
 10
127.6554094684
 20
61.2462203707
 30
0.0
 11
127.6554094684
 21
62.4962203707
 31
0.0
  0
LINE
  5
3D3
330
342
100
AcDbEntity
  8
6802420
  6
Continuous
 62
     7
100
AcDbLine
 10
127.6554094684
 20
62.4962203707
 30
0.0
 11
126.4054094684
 21
62.4962203707
 31
0.0
  0
LINE
  5
3D4
330
342
100
AcDbEntity
  8
6802420
  6
Continuous
 62
     7
100
AcDbLine
 10
126.4054094684
 20
62.4962203707
 30
0.0
 11
126.4054094684
 21
61.2462203707
 31
0.0
  0
LINE
  5
3D5
330
342
100
AcDbEntity
  8
6802420
  6
Continuous
 62
     7
100
AcDbLine
 10
126.4054094684
 20
59.2462203707
 30
0.0
 11
127.6554094684
 21
59.2462203707
 31
0.0
  0
LINE
  5
3D6
330
342
100
AcDbEntity
  8
6802420
  6
Continuous
 62
     7
100
AcDbLine
 10
127.6554094684
 20
59.2462203707
 30
0.0
 11
127.6554094684
 21
60.4962203707
 31
0.0
  0
LINE
  5
3D7
330
342
100
AcDbEntity
  8
6802420
  6
Continuous
 62
     7
100
AcDbLine
 10
127.6554094684
 20
60.4962203707
 30
0.0
 11
126.4054094684
 21
60.4962203707
 31
0.0
  0
LINE
  5
3D8
330
342
100
AcDbEntity
  8
6802420
  6
Continuous
 62
     7
100
AcDbLine
 10
126.4054094684
 20
60.4962203707
 30
0.0
 11
126.4054094684
 21
59.2462203707
 31
0.0
  0
LINE
  5
3D9
330
342
100
AcDbEntity
  8
6802420
  6
Continuous
 62
     7
100
AcDbLine
 10
126.4054094684
 20
57.2462203707
 30
0.0
 11
127.6554094684
 21
57.2462203707
 31
0.0
  0
LINE
  5
3DA
330
342
100
AcDbEntity
  8
6802420
  6
Continuous
 62
     7
100
AcDbLine
 10
127.6554094684
 20
57.2462203707
 30
0.0
 11
127.6554094684
 21
58.4962203707
 31
0.0
  0
LINE
  5
3DB
330
342
100
AcDbEntity
  8
6802420
  6
Continuous
 62
     7
100
AcDbLine
 10
127.6554094684
 20
58.4962203707
 30
0.0
 11
126.4054094684
 21
58.4962203707
 31
0.0
  0
LINE
  5
3DC
330
342
100
AcDbEntity
  8
6802420
  6
Continuous
 62
     7
100
AcDbLine
 10
126.4054094684
 20
58.4962203707
 30
0.0
 11
126.4054094684
 21
57.2462203707
 31
0.0
  0
LINE
  5
3DD
330
342
100
AcDbEntity
  8
6802420
  6
Continuous
 62
     7
100
AcDbLine
 10
126.4054094684
 20
55.2462203707
 30
0.0
 11
127.6554094684
 21
55.2462203707
 31
0.0
  0
LINE
  5
3DE
330
342
100
AcDbEntity
  8
6802420
  6
Continuous
 62
     7
100
AcDbLine
 10
127.6554094684
 20
55.2462203707
 30
0.0
 11
127.6554094684
 21
56.4962203707
 31
0.0
  0
LINE
  5
3DF
330
342
100
AcDbEntity
  8
6802420
  6
Continuous
 62
     7
100
AcDbLine
 10
127.6554094684
 20
56.4962203707
 30
0.0
 11
126.4054094684
 21
56.4962203707
 31
0.0
  0
LINE
  5
3E0
330
342
100
AcDbEntity
  8
6802420
  6
Continuous
 62
     7
100
AcDbLine
 10
126.4054094684
 20
56.4962203707
 30
0.0
 11
126.4054094684
 21
55.2462203707
 31
0.0
  0
LINE
  5
3E1
330
342
100
AcDbEntity
  8
6802420
  6
Continuous
 62
     7
100
AcDbLine
 10
126.4054094684
 20
53.2462203707
 30
0.0
 11
127.6554094684
 21
53.2462203707
 31
0.0
  0
LINE
  5
3E2
330
342
100
AcDbEntity
  8
6802420
  6
Continuous
 62
     7
100
AcDbLine
 10
127.6554094684
 20
53.2462203707
 30
0.0
 11
127.6554094684
 21
54.4962203707
 31
0.0
  0
LINE
  5
3E3
330
342
100
AcDbEntity
  8
6802420
  6
Continuous
 62
     7
100
AcDbLine
 10
127.6554094684
 20
54.4962203707
 30
0.0
 11
126.4054094684
 21
54.4962203707
 31
0.0
  0
LINE
  5
3E4
330
342
100
AcDbEntity
  8
6802420
  6
Continuous
 62
     7
100
AcDbLine
 10
126.4054094684
 20
54.4962203707
 30
0.0
 11
126.4054094684
 21
53.2462203707
 31
0.0
  0
LINE
  5
3E5
330
342
100
AcDbEntity
  8
6802420
  6
Continuous
 62
     7
100
AcDbLine
 10
128.8929094684
 20
61.2462203707
 30
0.0
 11
130.1429094684
 21
61.2462203707
 31
0.0
  0
LINE
  5
3E6
330
342
100
AcDbEntity
  8
6802420
  6
Continuous
 62
     7
100
AcDbLine
 10
130.1429094684
 20
61.2462203707
 30
0.0
 11
130.1429094684
 21
62.4962203707
 31
0.0
  0
LINE
  5
3E7
330
342
100
AcDbEntity
  8
6802420
  6
Continuous
 62
     7
100
AcDbLine
 10
130.1429094684
 20
62.4962203707
 30
0.0
 11
128.8929094684
 21
62.4962203707
 31
0.0
  0
LINE
  5
3E8
330
342
100
AcDbEntity
  8
6802420
  6
Continuous
 62
     7
100
AcDbLine
 10
128.8929094684
 20
62.4962203707
 30
0.0
 11
128.8929094684
 21
61.2462203707
 31
0.0
  0
LINE
  5
3E9
330
342
100
AcDbEntity
  8
6802420
  6
Continuous
 62
     7
100
AcDbLine
 10
128.8929094684
 20
59.2462203707
 30
0.0
 11
130.1429094684
 21
59.2462203707
 31
0.0
  0
LINE
  5
3EA
330
342
100
AcDbEntity
  8
6802420
  6
Continuous
 62
     7
100
AcDbLine
 10
130.1429094684
 20
59.2462203707
 30
0.0
 11
130.1429094684
 21
60.4962203707
 31
0.0
  0
LINE
  5
3EB
330
342
100
AcDbEntity
  8
6802420
  6
Continuous
 62
     7
100
AcDbLine
 10
130.1429094684
 20
60.4962203707
 30
0.0
 11
128.8929094684
 21
60.4962203707
 31
0.0
  0
LINE
  5
3EC
330
342
100
AcDbEntity
  8
6802420
  6
Continuous
 62
     7
100
AcDbLine
 10
128.8929094684
 20
60.4962203707
 30
0.0
 11
128.8929094684
 21
59.2462203707
 31
0.0
  0
LINE
  5
3ED
330
342
100
AcDbEntity
  8
6802420
  6
Continuous
 62
     7
100
AcDbLine
 10
128.8929094684
 20
57.2462203707
 30
0.0
 11
130.1429094684
 21
57.2462203707
 31
0.0
  0
LINE
  5
3EE
330
342
100
AcDbEntity
  8
6802420
  6
Continuous
 62
     7
100
AcDbLine
 10
130.1429094684
 20
57.2462203707
 30
0.0
 11
130.1429094684
 21
58.4962203707
 31
0.0
  0
LINE
  5
3EF
330
342
100
AcDbEntity
  8
6802420
  6
Continuous
 62
     7
100
AcDbLine
 10
130.1429094684
 20
58.4962203707
 30
0.0
 11
128.8929094684
 21
58.4962203707
 31
0.0
  0
LINE
  5
3F0
330
342
100
AcDbEntity
  8
6802420
  6
Continuous
 62
     7
100
AcDbLine
 10
128.8929094684
 20
58.4962203707
 30
0.0
 11
128.8929094684
 21
57.2462203707
 31
0.0
  0
LINE
  5
3F1
330
342
100
AcDbEntity
  8
6802420
  6
Continuous
 62
     7
100
AcDbLine
 10
128.8929094684
 20
55.2462203707
 30
0.0
 11
130.1429094684
 21
55.2462203707
 31
0.0
  0
LINE
  5
3F2
330
342
100
AcDbEntity
  8
6802420
  6
Continuous
 62
     7
100
AcDbLine
 10
130.1429094684
 20
55.2462203707
 30
0.0
 11
130.1429094684
 21
56.4962203707
 31
0.0
  0
LINE
  5
3F3
330
342
100
AcDbEntity
  8
6802420
  6
Continuous
 62
     7
100
AcDbLine
 10
130.1429094684
 20
56.4962203707
 30
0.0
 11
128.8929094684
 21
56.4962203707
 31
0.0
  0
LINE
  5
3F4
330
342
100
AcDbEntity
  8
6802420
  6
Continuous
 62
     7
100
AcDbLine
 10
128.8929094684
 20
56.4962203707
 30
0.0
 11
128.8929094684
 21
55.2462203707
 31
0.0
  0
LINE
  5
3F5
330
342
100
AcDbEntity
  8
6802420
  6
Continuous
 62
     7
100
AcDbLine
 10
128.8929094684
 20
53.2462203707
 30
0.0
 11
130.1429094684
 21
53.2462203707
 31
0.0
  0
LINE
  5
3F6
330
342
100
AcDbEntity
  8
6802420
  6
Continuous
 62
     7
100
AcDbLine
 10
130.1429094684
 20
53.2462203707
 30
0.0
 11
130.1429094684
 21
54.4962203707
 31
0.0
  0
LINE
  5
3F7
330
342
100
AcDbEntity
  8
6802420
  6
Continuous
 62
     7
100
AcDbLine
 10
130.1429094684
 20
54.4962203707
 30
0.0
 11
128.8929094684
 21
54.4962203707
 31
0.0
  0
LINE
  5
3F8
330
342
100
AcDbEntity
  8
6802420
  6
Continuous
 62
     7
100
AcDbLine
 10
128.8929094684
 20
54.4962203707
 30
0.0
 11
128.8929094684
 21
53.2462203707
 31
0.0
  0
LINE
  5
3F9
330
342
100
AcDbEntity
  8
6802420
  6
Continuous
 62
     7
100
AcDbLine
 10
131.3804094684
 20
61.2462203707
 30
0.0
 11
132.6304094684
 21
61.2462203707
 31
0.0
  0
LINE
  5
3FA
330
342
100
AcDbEntity
  8
6802420
  6
Continuous
 62
     7
100
AcDbLine
 10
132.6304094684
 20
61.2462203707
 30
0.0
 11
132.6304094684
 21
62.4962203707
 31
0.0
  0
LINE
  5
3FB
330
342
100
AcDbEntity
  8
6802420
  6
Continuous
 62
     7
100
AcDbLine
 10
132.6304094684
 20
62.4962203707
 30
0.0
 11
131.3804094684
 21
62.4962203707
 31
0.0
  0
LINE
  5
3FC
330
342
100
AcDbEntity
  8
6802420
  6
Continuous
 62
     7
100
AcDbLine
 10
131.3804094684
 20
62.4962203707
 30
0.0
 11
131.3804094684
 21
61.2462203707
 31
0.0
  0
LINE
  5
3FD
330
342
100
AcDbEntity
  8
6802420
  6
Continuous
 62
     7
100
AcDbLine
 10
131.3804094684
 20
59.2462203707
 30
0.0
 11
132.6304094684
 21
59.2462203707
 31
0.0
  0
LINE
  5
3FE
330
342
100
AcDbEntity
  8
6802420
  6
Continuous
 62
     7
100
AcDbLine
 10
132.6304094684
 20
59.2462203707
 30
0.0
 11
132.6304094684
 21
60.4962203707
 31
0.0
  0
LINE
  5
3FF
330
342
100
AcDbEntity
  8
6802420
  6
Continuous
 62
     7
100
AcDbLine
 10
132.6304094684
 20
60.4962203707
 30
0.0
 11
131.3804094684
 21
60.4962203707
 31
0.0
  0
LINE
  5
400
330
342
100
AcDbEntity
  8
6802420
  6
Continuous
 62
     7
100
AcDbLine
 10
131.3804094684
 20
60.4962203707
 30
0.0
 11
131.3804094684
 21
59.2462203707
 31
0.0
  0
LINE
  5
401
330
342
100
AcDbEntity
  8
6802420
  6
Continuous
 62
     7
100
AcDbLine
 10
131.3804094684
 20
57.2462203707
 30
0.0
 11
132.6304094684
 21
57.2462203707
 31
0.0
  0
LINE
  5
402
330
342
100
AcDbEntity
  8
6802420
  6
Continuous
 62
     7
100
AcDbLine
 10
132.6304094684
 20
57.2462203707
 30
0.0
 11
132.6304094684
 21
58.4962203707
 31
0.0
  0
LINE
  5
403
330
342
100
AcDbEntity
  8
6802420
  6
Continuous
 62
     7
100
AcDbLine
 10
132.6304094684
 20
58.4962203707
 30
0.0
 11
131.3804094684
 21
58.4962203707
 31
0.0
  0
LINE
  5
404
330
342
100
AcDbEntity
  8
6802420
  6
Continuous
 62
     7
100
AcDbLine
 10
131.3804094684
 20
58.4962203707
 30
0.0
 11
131.3804094684
 21
57.2462203707
 31
0.0
  0
LINE
  5
405
330
342
100
AcDbEntity
  8
6802420
  6
Continuous
 62
     7
100
AcDbLine
 10
131.3804094684
 20
55.2462203707
 30
0.0
 11
132.6304094684
 21
55.2462203707
 31
0.0
  0
LINE
  5
406
330
342
100
AcDbEntity
  8
6802420
  6
Continuous
 62
     7
100
AcDbLine
 10
132.6304094684
 20
55.2462203707
 30
0.0
 11
132.6304094684
 21
56.4962203707
 31
0.0
  0
LINE
  5
407
330
342
100
AcDbEntity
  8
6802420
  6
Continuous
 62
     7
100
AcDbLine
 10
132.6304094684
 20
56.4962203707
 30
0.0
 11
131.3804094684
 21
56.4962203707
 31
0.0
  0
LINE
  5
408
330
342
100
AcDbEntity
  8
6802420
  6
Continuous
 62
     7
100
AcDbLine
 10
131.3804094684
 20
56.4962203707
 30
0.0
 11
131.3804094684
 21
55.2462203707
 31
0.0
  0
LINE
  5
409
330
342
100
AcDbEntity
  8
6802420
  6
Continuous
 62
     7
100
AcDbLine
 10
131.3804094684
 20
53.2462203707
 30
0.0
 11
132.6304094684
 21
53.2462203707
 31
0.0
  0
LINE
  5
40A
330
342
100
AcDbEntity
  8
6802420
  6
Continuous
 62
     7
100
AcDbLine
 10
132.6304094684
 20
53.2462203707
 30
0.0
 11
132.6304094684
 21
54.4962203707
 31
0.0
  0
LINE
  5
40B
330
342
100
AcDbEntity
  8
6802420
  6
Continuous
 62
     7
100
AcDbLine
 10
132.6304094684
 20
54.4962203707
 30
0.0
 11
131.3804094684
 21
54.4962203707
 31
0.0
  0
LINE
  5
40C
330
342
100
AcDbEntity
  8
6802420
  6
Continuous
 62
     7
100
AcDbLine
 10
131.3804094684
 20
54.4962203707
 30
0.0
 11
131.3804094684
 21
53.2462203707
 31
0.0
  0
LINE
  5
40D
330
342
100
AcDbEntity
  8
6802420
  6
Continuous
 62
     7
100
AcDbLine
 10
133.8679094684
 20
61.2462203707
 30
0.0
 11
135.1179094684
 21
61.2462203707
 31
0.0
  0
LINE
  5
40E
330
342
100
AcDbEntity
  8
6802420
  6
Continuous
 62
     7
100
AcDbLine
 10
135.1179094684
 20
61.2462203707
 30
0.0
 11
135.1179094684
 21
62.4962203707
 31
0.0
  0
LINE
  5
40F
330
342
100
AcDbEntity
  8
6802420
  6
Continuous
 62
     7
100
AcDbLine
 10
135.1179094684
 20
62.4962203707
 30
0.0
 11
133.8679094684
 21
62.4962203707
 31
0.0
  0
LINE
  5
410
330
342
100
AcDbEntity
  8
6802420
  6
Continuous
 62
     7
100
AcDbLine
 10
133.8679094684
 20
62.4962203707
 30
0.0
 11
133.8679094684
 21
61.2462203707
 31
0.0
  0
LINE
  5
411
330
342
100
AcDbEntity
  8
6802420
  6
Continuous
 62
     7
100
AcDbLine
 10
133.8679094684
 20
59.2462203707
 30
0.0
 11
135.1179094684
 21
59.2462203707
 31
0.0
  0
LINE
  5
412
330
342
100
AcDbEntity
  8
6802420
  6
Continuous
 62
     7
100
AcDbLine
 10
135.1179094684
 20
59.2462203707
 30
0.0
 11
135.1179094684
 21
60.4962203707
 31
0.0
  0
LINE
  5
413
330
342
100
AcDbEntity
  8
6802420
  6
Continuous
 62
     7
100
AcDbLine
 10
135.1179094684
 20
60.4962203707
 30
0.0
 11
133.8679094684
 21
60.4962203707
 31
0.0
  0
LINE
  5
414
330
342
100
AcDbEntity
  8
6802420
  6
Continuous
 62
     7
100
AcDbLine
 10
133.8679094684
 20
60.4962203707
 30
0.0
 11
133.8679094684
 21
59.2462203707
 31
0.0
  0
LINE
  5
415
330
342
100
AcDbEntity
  8
6802420
  6
Continuous
 62
     7
100
AcDbLine
 10
133.8679094684
 20
57.2462203707
 30
0.0
 11
135.1179094684
 21
57.2462203707
 31
0.0
  0
LINE
  5
416
330
342
100
AcDbEntity
  8
6802420
  6
Continuous
 62
     7
100
AcDbLine
 10
135.1179094684
 20
57.2462203707
 30
0.0
 11
135.1179094684
 21
58.4962203707
 31
0.0
  0
LINE
  5
417
330
342
100
AcDbEntity
  8
6802420
  6
Continuous
 62
     7
100
AcDbLine
 10
135.1179094684
 20
58.4962203707
 30
0.0
 11
133.8679094684
 21
58.4962203707
 31
0.0
  0
LINE
  5
418
330
342
100
AcDbEntity
  8
6802420
  6
Continuous
 62
     7
100
AcDbLine
 10
133.8679094684
 20
58.4962203707
 30
0.0
 11
133.8679094684
 21
57.2462203707
 31
0.0
  0
LINE
  5
419
330
342
100
AcDbEntity
  8
6802420
  6
Continuous
 62
     7
100
AcDbLine
 10
133.8679094684
 20
55.2462203707
 30
0.0
 11
135.1179094684
 21
55.2462203707
 31
0.0
  0
LINE
  5
41A
330
342
100
AcDbEntity
  8
6802420
  6
Continuous
 62
     7
100
AcDbLine
 10
135.1179094684
 20
55.2462203707
 30
0.0
 11
135.1179094684
 21
56.4962203707
 31
0.0
  0
LINE
  5
41B
330
342
100
AcDbEntity
  8
6802420
  6
Continuous
 62
     7
100
AcDbLine
 10
135.1179094684
 20
56.4962203707
 30
0.0
 11
133.8679094684
 21
56.4962203707
 31
0.0
  0
LINE
  5
41C
330
342
100
AcDbEntity
  8
6802420
  6
Continuous
 62
     7
100
AcDbLine
 10
133.8679094684
 20
56.4962203707
 30
0.0
 11
133.8679094684
 21
55.2462203707
 31
0.0
  0
LINE
  5
41D
330
342
100
AcDbEntity
  8
6802420
  6
Continuous
 62
     7
100
AcDbLine
 10
133.8679094684
 20
53.2462203707
 30
0.0
 11
135.1179094684
 21
53.2462203707
 31
0.0
  0
LINE
  5
41E
330
342
100
AcDbEntity
  8
6802420
  6
Continuous
 62
     7
100
AcDbLine
 10
135.1179094684
 20
53.2462203707
 30
0.0
 11
135.1179094684
 21
54.4962203707
 31
0.0
  0
LINE
  5
41F
330
342
100
AcDbEntity
  8
6802420
  6
Continuous
 62
     7
100
AcDbLine
 10
135.1179094684
 20
54.4962203707
 30
0.0
 11
133.8679094684
 21
54.4962203707
 31
0.0
  0
LINE
  5
420
330
342
100
AcDbEntity
  8
6802420
  6
Continuous
 62
     7
100
AcDbLine
 10
133.8679094684
 20
54.4962203707
 30
0.0
 11
133.8679094684
 21
53.2462203707
 31
0.0
  0
LINE
  5
421
330
342
100
AcDbEntity
  8
6802420
  6
Continuous
 62
     7
100
AcDbLine
 10
136.3554094684
 20
61.2462203707
 30
0.0
 11
137.6054094684
 21
61.2462203707
 31
0.0
  0
LINE
  5
422
330
342
100
AcDbEntity
  8
6802420
  6
Continuous
 62
     7
100
AcDbLine
 10
137.6054094684
 20
61.2462203707
 30
0.0
 11
137.6054094684
 21
62.4962203707
 31
0.0
  0
LINE
  5
423
330
342
100
AcDbEntity
  8
6802420
  6
Continuous
 62
     7
100
AcDbLine
 10
137.6054094684
 20
62.4962203707
 30
0.0
 11
136.3554094684
 21
62.4962203707
 31
0.0
  0
LINE
  5
424
330
342
100
AcDbEntity
  8
6802420
  6
Continuous
 62
     7
100
AcDbLine
 10
136.3554094684
 20
62.4962203707
 30
0.0
 11
136.3554094684
 21
61.2462203707
 31
0.0
  0
LINE
  5
425
330
342
100
AcDbEntity
  8
6802420
  6
Continuous
 62
     7
100
AcDbLine
 10
136.3554094684
 20
59.2462203707
 30
0.0
 11
137.6054094684
 21
59.2462203707
 31
0.0
  0
LINE
  5
426
330
342
100
AcDbEntity
  8
6802420
  6
Continuous
 62
     7
100
AcDbLine
 10
137.6054094684
 20
59.2462203707
 30
0.0
 11
137.6054094684
 21
60.4962203707
 31
0.0
  0
LINE
  5
427
330
342
100
AcDbEntity
  8
6802420
  6
Continuous
 62
     7
100
AcDbLine
 10
137.6054094684
 20
60.4962203707
 30
0.0
 11
136.3554094684
 21
60.4962203707
 31
0.0
  0
LINE
  5
428
330
342
100
AcDbEntity
  8
6802420
  6
Continuous
 62
     7
100
AcDbLine
 10
136.3554094684
 20
60.4962203707
 30
0.0
 11
136.3554094684
 21
59.2462203707
 31
0.0
  0
LINE
  5
429
330
342
100
AcDbEntity
  8
6802420
  6
Continuous
 62
     7
100
AcDbLine
 10
136.3554094684
 20
57.2462203707
 30
0.0
 11
137.6054094684
 21
57.2462203707
 31
0.0
  0
LINE
  5
42A
330
342
100
AcDbEntity
  8
6802420
  6
Continuous
 62
     7
100
AcDbLine
 10
137.6054094684
 20
57.2462203707
 30
0.0
 11
137.6054094684
 21
58.4962203707
 31
0.0
  0
LINE
  5
42B
330
342
100
AcDbEntity
  8
6802420
  6
Continuous
 62
     7
100
AcDbLine
 10
137.6054094684
 20
58.4962203707
 30
0.0
 11
136.3554094684
 21
58.4962203707
 31
0.0
  0
LINE
  5
42C
330
342
100
AcDbEntity
  8
6802420
  6
Continuous
 62
     7
100
AcDbLine
 10
136.3554094684
 20
58.4962203707
 30
0.0
 11
136.3554094684
 21
57.2462203707
 31
0.0
  0
LINE
  5
42D
330
342
100
AcDbEntity
  8
6802420
  6
Continuous
 62
     7
100
AcDbLine
 10
136.3554094684
 20
55.2462203707
 30
0.0
 11
137.6054094684
 21
55.2462203707
 31
0.0
  0
LINE
  5
42E
330
342
100
AcDbEntity
  8
6802420
  6
Continuous
 62
     7
100
AcDbLine
 10
137.6054094684
 20
55.2462203707
 30
0.0
 11
137.6054094684
 21
56.4962203707
 31
0.0
  0
LINE
  5
42F
330
342
100
AcDbEntity
  8
6802420
  6
Continuous
 62
     7
100
AcDbLine
 10
137.6054094684
 20
56.4962203707
 30
0.0
 11
136.3554094684
 21
56.4962203707
 31
0.0
  0
LINE
  5
430
330
342
100
AcDbEntity
  8
6802420
  6
Continuous
 62
     7
100
AcDbLine
 10
136.3554094684
 20
56.4962203707
 30
0.0
 11
136.3554094684
 21
55.2462203707
 31
0.0
  0
LINE
  5
431
330
342
100
AcDbEntity
  8
6802420
  6
Continuous
 62
     7
100
AcDbLine
 10
136.3554094684
 20
53.2462203707
 30
0.0
 11
137.6054094684
 21
53.2462203707
 31
0.0
  0
LINE
  5
432
330
342
100
AcDbEntity
  8
6802420
  6
Continuous
 62
     7
100
AcDbLine
 10
137.6054094684
 20
53.2462203707
 30
0.0
 11
137.6054094684
 21
54.4962203707
 31
0.0
  0
LINE
  5
433
330
342
100
AcDbEntity
  8
6802420
  6
Continuous
 62
     7
100
AcDbLine
 10
137.6054094684
 20
54.4962203707
 30
0.0
 11
136.3554094684
 21
54.4962203707
 31
0.0
  0
LINE
  5
434
330
342
100
AcDbEntity
  8
6802420
  6
Continuous
 62
     7
100
AcDbLine
 10
136.3554094684
 20
54.4962203707
 30
0.0
 11
136.3554094684
 21
53.2462203707
 31
0.0
  0
LINE
  5
435
330
342
100
AcDbEntity
  8
6802420
  6
Continuous
 62
     7
100
AcDbLine
 10
138.8429094684
 20
61.2462203707
 30
0.0
 11
140.0929094684
 21
61.2462203707
 31
0.0
  0
LINE
  5
436
330
342
100
AcDbEntity
  8
6802420
  6
Continuous
 62
     7
100
AcDbLine
 10
140.0929094684
 20
61.2462203707
 30
0.0
 11
140.0929094684
 21
62.4962203707
 31
0.0
  0
LINE
  5
437
330
342
100
AcDbEntity
  8
6802420
  6
Continuous
 62
     7
100
AcDbLine
 10
140.0929094684
 20
62.4962203707
 30
0.0
 11
138.8429094684
 21
62.4962203707
 31
0.0
  0
LINE
  5
438
330
342
100
AcDbEntity
  8
6802420
  6
Continuous
 62
     7
100
AcDbLine
 10
138.8429094684
 20
62.4962203707
 30
0.0
 11
138.8429094684
 21
61.2462203707
 31
0.0
  0
LINE
  5
439
330
342
100
AcDbEntity
  8
6802420
  6
Continuous
 62
     7
100
AcDbLine
 10
138.8429094684
 20
59.2462203707
 30
0.0
 11
140.0929094684
 21
59.2462203707
 31
0.0
  0
LINE
  5
43A
330
342
100
AcDbEntity
  8
6802420
  6
Continuous
 62
     7
100
AcDbLine
 10
140.0929094684
 20
59.2462203707
 30
0.0
 11
140.0929094684
 21
60.4962203707
 31
0.0
  0
LINE
  5
43B
330
342
100
AcDbEntity
  8
6802420
  6
Continuous
 62
     7
100
AcDbLine
 10
140.0929094684
 20
60.4962203707
 30
0.0
 11
138.8429094684
 21
60.4962203707
 31
0.0
  0
LINE
  5
43C
330
342
100
AcDbEntity
  8
6802420
  6
Continuous
 62
     7
100
AcDbLine
 10
138.8429094684
 20
60.4962203707
 30
0.0
 11
138.8429094684
 21
59.2462203707
 31
0.0
  0
LINE
  5
43D
330
342
100
AcDbEntity
  8
6802420
  6
Continuous
 62
     7
100
AcDbLine
 10
138.8429094684
 20
57.2462203707
 30
0.0
 11
140.0929094684
 21
57.2462203707
 31
0.0
  0
LINE
  5
43E
330
342
100
AcDbEntity
  8
6802420
  6
Continuous
 62
     7
100
AcDbLine
 10
140.0929094684
 20
57.2462203707
 30
0.0
 11
140.0929094684
 21
58.4962203707
 31
0.0
  0
LINE
  5
43F
330
342
100
AcDbEntity
  8
6802420
  6
Continuous
 62
     7
100
AcDbLine
 10
140.0929094684
 20
58.4962203707
 30
0.0
 11
138.8429094684
 21
58.4962203707
 31
0.0
  0
LINE
  5
440
330
342
100
AcDbEntity
  8
6802420
  6
Continuous
 62
     7
100
AcDbLine
 10
138.8429094684
 20
58.4962203707
 30
0.0
 11
138.8429094684
 21
57.2462203707
 31
0.0
  0
LINE
  5
441
330
342
100
AcDbEntity
  8
6802420
  6
Continuous
 62
     7
100
AcDbLine
 10
138.8429094684
 20
55.2462203707
 30
0.0
 11
140.0929094684
 21
55.2462203707
 31
0.0
  0
LINE
  5
442
330
342
100
AcDbEntity
  8
6802420
  6
Continuous
 62
     7
100
AcDbLine
 10
140.0929094684
 20
55.2462203707
 30
0.0
 11
140.0929094684
 21
56.4962203707
 31
0.0
  0
LINE
  5
443
330
342
100
AcDbEntity
  8
6802420
  6
Continuous
 62
     7
100
AcDbLine
 10
140.0929094684
 20
56.4962203707
 30
0.0
 11
138.8429094684
 21
56.4962203707
 31
0.0
  0
LINE
  5
444
330
342
100
AcDbEntity
  8
6802420
  6
Continuous
 62
     7
100
AcDbLine
 10
138.8429094684
 20
56.4962203707
 30
0.0
 11
138.8429094684
 21
55.2462203707
 31
0.0
  0
LINE
  5
445
330
342
100
AcDbEntity
  8
6802420
  6
Continuous
 62
     7
100
AcDbLine
 10
138.8429094684
 20
53.2462203707
 30
0.0
 11
140.0929094684
 21
53.2462203707
 31
0.0
  0
LINE
  5
446
330
342
100
AcDbEntity
  8
6802420
  6
Continuous
 62
     7
100
AcDbLine
 10
140.0929094684
 20
53.2462203707
 30
0.0
 11
140.0929094684
 21
54.4962203707
 31
0.0
  0
LINE
  5
447
330
342
100
AcDbEntity
  8
6802420
  6
Continuous
 62
     7
100
AcDbLine
 10
140.0929094684
 20
54.4962203707
 30
0.0
 11
138.8429094684
 21
54.4962203707
 31
0.0
  0
LINE
  5
448
330
342
100
AcDbEntity
  8
6802420
  6
Continuous
 62
     7
100
AcDbLine
 10
138.8429094684
 20
54.4962203707
 30
0.0
 11
138.8429094684
 21
53.2462203707
 31
0.0
  0
LINE
  5
449
330
342
100
AcDbEntity
  8
6802420
  6
Continuous
 62
     7
100
AcDbLine
 10
141.3304094684
 20
61.2462203707
 30
0.0
 11
142.5804094684
 21
61.2462203707
 31
0.0
  0
LINE
  5
44A
330
342
100
AcDbEntity
  8
6802420
  6
Continuous
 62
     7
100
AcDbLine
 10
142.5804094684
 20
61.2462203707
 30
0.0
 11
142.5804094684
 21
62.4962203707
 31
0.0
  0
LINE
  5
44B
330
342
100
AcDbEntity
  8
6802420
  6
Continuous
 62
     7
100
AcDbLine
 10
142.5804094684
 20
62.4962203707
 30
0.0
 11
141.3304094684
 21
62.4962203707
 31
0.0
  0
LINE
  5
44C
330
342
100
AcDbEntity
  8
6802420
  6
Continuous
 62
     7
100
AcDbLine
 10
141.3304094684
 20
62.4962203707
 30
0.0
 11
141.3304094684
 21
61.2462203707
 31
0.0
  0
LINE
  5
44D
330
342
100
AcDbEntity
  8
6802420
  6
Continuous
 62
     7
100
AcDbLine
 10
141.3304094684
 20
59.2462203707
 30
0.0
 11
142.5804094684
 21
59.2462203707
 31
0.0
  0
LINE
  5
44E
330
342
100
AcDbEntity
  8
6802420
  6
Continuous
 62
     7
100
AcDbLine
 10
142.5804094684
 20
59.2462203707
 30
0.0
 11
142.5804094684
 21
60.4962203707
 31
0.0
  0
LINE
  5
44F
330
342
100
AcDbEntity
  8
6802420
  6
Continuous
 62
     7
100
AcDbLine
 10
142.5804094684
 20
60.4962203707
 30
0.0
 11
141.3304094684
 21
60.4962203707
 31
0.0
  0
LINE
  5
450
330
342
100
AcDbEntity
  8
6802420
  6
Continuous
 62
     7
100
AcDbLine
 10
141.3304094684
 20
60.4962203707
 30
0.0
 11
141.3304094684
 21
59.2462203707
 31
0.0
  0
LINE
  5
451
330
342
100
AcDbEntity
  8
6802420
  6
Continuous
 62
     7
100
AcDbLine
 10
141.3304094684
 20
57.2462203707
 30
0.0
 11
142.5804094684
 21
57.2462203707
 31
0.0
  0
LINE
  5
452
330
342
100
AcDbEntity
  8
6802420
  6
Continuous
 62
     7
100
AcDbLine
 10
142.5804094684
 20
57.2462203707
 30
0.0
 11
142.5804094684
 21
58.4962203707
 31
0.0
  0
LINE
  5
453
330
342
100
AcDbEntity
  8
6802420
  6
Continuous
 62
     7
100
AcDbLine
 10
142.5804094684
 20
58.4962203707
 30
0.0
 11
141.3304094684
 21
58.4962203707
 31
0.0
  0
LINE
  5
454
330
342
100
AcDbEntity
  8
6802420
  6
Continuous
 62
     7
100
AcDbLine
 10
141.3304094684
 20
58.4962203707
 30
0.0
 11
141.3304094684
 21
57.2462203707
 31
0.0
  0
LINE
  5
455
330
342
100
AcDbEntity
  8
6802420
  6
Continuous
 62
     7
100
AcDbLine
 10
141.3304094684
 20
55.2462203707
 30
0.0
 11
142.5804094684
 21
55.2462203707
 31
0.0
  0
LINE
  5
456
330
342
100
AcDbEntity
  8
6802420
  6
Continuous
 62
     7
100
AcDbLine
 10
142.5804094684
 20
55.2462203707
 30
0.0
 11
142.5804094684
 21
56.4962203707
 31
0.0
  0
LINE
  5
457
330
342
100
AcDbEntity
  8
6802420
  6
Continuous
 62
     7
100
AcDbLine
 10
142.5804094684
 20
56.4962203707
 30
0.0
 11
141.3304094684
 21
56.4962203707
 31
0.0
  0
LINE
  5
458
330
342
100
AcDbEntity
  8
6802420
  6
Continuous
 62
     7
100
AcDbLine
 10
141.3304094684
 20
56.4962203707
 30
0.0
 11
141.3304094684
 21
55.2462203707
 31
0.0
  0
LINE
  5
459
330
342
100
AcDbEntity
  8
6802420
  6
Continuous
 62
     7
100
AcDbLine
 10
141.3304094684
 20
53.2462203707
 30
0.0
 11
142.5804094684
 21
53.2462203707
 31
0.0
  0
LINE
  5
45A
330
342
100
AcDbEntity
  8
6802420
  6
Continuous
 62
     7
100
AcDbLine
 10
142.5804094684
 20
53.2462203707
 30
0.0
 11
142.5804094684
 21
54.4962203707
 31
0.0
  0
LINE
  5
45B
330
342
100
AcDbEntity
  8
6802420
  6
Continuous
 62
     7
100
AcDbLine
 10
142.5804094684
 20
54.4962203707
 30
0.0
 11
141.3304094684
 21
54.4962203707
 31
0.0
  0
LINE
  5
45C
330
342
100
AcDbEntity
  8
6802420
  6
Continuous
 62
     7
100
AcDbLine
 10
141.3304094684
 20
54.4962203707
 30
0.0
 11
141.3304094684
 21
53.2462203707
 31
0.0
  0
LINE
  5
45D
330
342
100
AcDbEntity
  8
6802420
  6
Continuous
 62
     7
100
AcDbLine
 10
143.8179094684
 20
61.2462203707
 30
0.0
 11
145.0679094684
 21
61.2462203707
 31
0.0
  0
LINE
  5
45E
330
342
100
AcDbEntity
  8
6802420
  6
Continuous
 62
     7
100
AcDbLine
 10
145.0679094684
 20
61.2462203707
 30
0.0
 11
145.0679094684
 21
62.4962203707
 31
0.0
  0
LINE
  5
45F
330
342
100
AcDbEntity
  8
6802420
  6
Continuous
 62
     7
100
AcDbLine
 10
145.0679094684
 20
62.4962203707
 30
0.0
 11
143.8179094684
 21
62.4962203707
 31
0.0
  0
LINE
  5
460
330
342
100
AcDbEntity
  8
6802420
  6
Continuous
 62
     7
100
AcDbLine
 10
143.8179094684
 20
62.4962203707
 30
0.0
 11
143.8179094684
 21
61.2462203707
 31
0.0
  0
LINE
  5
461
330
342
100
AcDbEntity
  8
6802420
  6
Continuous
 62
     7
100
AcDbLine
 10
143.8179094684
 20
59.2462203707
 30
0.0
 11
145.0679094684
 21
59.2462203707
 31
0.0
  0
LINE
  5
462
330
342
100
AcDbEntity
  8
6802420
  6
Continuous
 62
     7
100
AcDbLine
 10
145.0679094684
 20
59.2462203707
 30
0.0
 11
145.0679094684
 21
60.4962203707
 31
0.0
  0
LINE
  5
463
330
342
100
AcDbEntity
  8
6802420
  6
Continuous
 62
     7
100
AcDbLine
 10
145.0679094684
 20
60.4962203707
 30
0.0
 11
143.8179094684
 21
60.4962203707
 31
0.0
  0
LINE
  5
464
330
342
100
AcDbEntity
  8
6802420
  6
Continuous
 62
     7
100
AcDbLine
 10
143.8179094684
 20
60.4962203707
 30
0.0
 11
143.8179094684
 21
59.2462203707
 31
0.0
  0
LINE
  5
465
330
342
100
AcDbEntity
  8
6802420
  6
Continuous
 62
     7
100
AcDbLine
 10
143.8179094684
 20
57.2462203707
 30
0.0
 11
145.0679094684
 21
57.2462203707
 31
0.0
  0
LINE
  5
466
330
342
100
AcDbEntity
  8
6802420
  6
Continuous
 62
     7
100
AcDbLine
 10
145.0679094684
 20
57.2462203707
 30
0.0
 11
145.0679094684
 21
58.4962203707
 31
0.0
  0
LINE
  5
467
330
342
100
AcDbEntity
  8
6802420
  6
Continuous
 62
     7
100
AcDbLine
 10
145.0679094684
 20
58.4962203707
 30
0.0
 11
143.8179094684
 21
58.4962203707
 31
0.0
  0
LINE
  5
468
330
342
100
AcDbEntity
  8
6802420
  6
Continuous
 62
     7
100
AcDbLine
 10
143.8179094684
 20
58.4962203707
 30
0.0
 11
143.8179094684
 21
57.2462203707
 31
0.0
  0
LINE
  5
469
330
342
100
AcDbEntity
  8
6802420
  6
Continuous
 62
     7
100
AcDbLine
 10
143.8179094684
 20
55.2462203707
 30
0.0
 11
145.0679094684
 21
55.2462203707
 31
0.0
  0
LINE
  5
46A
330
342
100
AcDbEntity
  8
6802420
  6
Continuous
 62
     7
100
AcDbLine
 10
145.0679094684
 20
55.2462203707
 30
0.0
 11
145.0679094684
 21
56.4962203707
 31
0.0
  0
LINE
  5
46B
330
342
100
AcDbEntity
  8
6802420
  6
Continuous
 62
     7
100
AcDbLine
 10
145.0679094684
 20
56.4962203707
 30
0.0
 11
143.8179094684
 21
56.4962203707
 31
0.0
  0
LINE
  5
46C
330
342
100
AcDbEntity
  8
6802420
  6
Continuous
 62
     7
100
AcDbLine
 10
143.8179094684
 20
56.4962203707
 30
0.0
 11
143.8179094684
 21
55.2462203707
 31
0.0
  0
LINE
  5
46D
330
342
100
AcDbEntity
  8
6802420
  6
Continuous
 62
     7
100
AcDbLine
 10
143.8179094684
 20
53.2462203707
 30
0.0
 11
145.0679094684
 21
53.2462203707
 31
0.0
  0
LINE
  5
46E
330
342
100
AcDbEntity
  8
6802420
  6
Continuous
 62
     7
100
AcDbLine
 10
145.0679094684
 20
53.2462203707
 30
0.0
 11
145.0679094684
 21
54.4962203707
 31
0.0
  0
LINE
  5
46F
330
342
100
AcDbEntity
  8
6802420
  6
Continuous
 62
     7
100
AcDbLine
 10
145.0679094684
 20
54.4962203707
 30
0.0
 11
143.8179094684
 21
54.4962203707
 31
0.0
  0
LINE
  5
470
330
342
100
AcDbEntity
  8
6802420
  6
Continuous
 62
     7
100
AcDbLine
 10
143.8179094684
 20
54.4962203707
 30
0.0
 11
143.8179094684
 21
53.2462203707
 31
0.0
  0
LINE
  5
471
330
342
100
AcDbEntity
  8
6802420
  6
Continuous
 62
     7
100
AcDbLine
 10
146.3054094684
 20
61.2462203707
 30
0.0
 11
147.5554094684
 21
61.2462203707
 31
0.0
  0
LINE
  5
472
330
342
100
AcDbEntity
  8
6802420
  6
Continuous
 62
     7
100
AcDbLine
 10
147.5554094684
 20
61.2462203707
 30
0.0
 11
147.5554094684
 21
62.4962203707
 31
0.0
  0
LINE
  5
473
330
342
100
AcDbEntity
  8
6802420
  6
Continuous
 62
     7
100
AcDbLine
 10
147.5554094684
 20
62.4962203707
 30
0.0
 11
146.3054094684
 21
62.4962203707
 31
0.0
  0
LINE
  5
474
330
342
100
AcDbEntity
  8
6802420
  6
Continuous
 62
     7
100
AcDbLine
 10
146.3054094684
 20
62.4962203707
 30
0.0
 11
146.3054094684
 21
61.2462203707
 31
0.0
  0
LINE
  5
475
330
342
100
AcDbEntity
  8
6802420
  6
Continuous
 62
     7
100
AcDbLine
 10
146.3054094684
 20
59.2462203707
 30
0.0
 11
147.5554094684
 21
59.2462203707
 31
0.0
  0
LINE
  5
476
330
342
100
AcDbEntity
  8
6802420
  6
Continuous
 62
     7
100
AcDbLine
 10
147.5554094684
 20
59.2462203707
 30
0.0
 11
147.5554094684
 21
60.4962203707
 31
0.0
  0
LINE
  5
477
330
342
100
AcDbEntity
  8
6802420
  6
Continuous
 62
     7
100
AcDbLine
 10
147.5554094684
 20
60.4962203707
 30
0.0
 11
146.3054094684
 21
60.4962203707
 31
0.0
  0
LINE
  5
478
330
342
100
AcDbEntity
  8
6802420
  6
Continuous
 62
     7
100
AcDbLine
 10
146.3054094684
 20
60.4962203707
 30
0.0
 11
146.3054094684
 21
59.2462203707
 31
0.0
  0
LINE
  5
479
330
342
100
AcDbEntity
  8
6802420
  6
Continuous
 62
     7
100
AcDbLine
 10
146.3054094684
 20
57.2462203707
 30
0.0
 11
147.5554094684
 21
57.2462203707
 31
0.0
  0
LINE
  5
47A
330
342
100
AcDbEntity
  8
6802420
  6
Continuous
 62
     7
100
AcDbLine
 10
147.5554094684
 20
57.2462203707
 30
0.0
 11
147.5554094684
 21
58.4962203707
 31
0.0
  0
LINE
  5
47B
330
342
100
AcDbEntity
  8
6802420
  6
Continuous
 62
     7
100
AcDbLine
 10
147.5554094684
 20
58.4962203707
 30
0.0
 11
146.3054094684
 21
58.4962203707
 31
0.0
  0
LINE
  5
47C
330
342
100
AcDbEntity
  8
6802420
  6
Continuous
 62
     7
100
AcDbLine
 10
146.3054094684
 20
58.4962203707
 30
0.0
 11
146.3054094684
 21
57.2462203707
 31
0.0
  0
LINE
  5
47D
330
342
100
AcDbEntity
  8
6802420
  6
Continuous
 62
     7
100
AcDbLine
 10
146.3054094684
 20
55.2462203707
 30
0.0
 11
147.5554094684
 21
55.2462203707
 31
0.0
  0
LINE
  5
47E
330
342
100
AcDbEntity
  8
6802420
  6
Continuous
 62
     7
100
AcDbLine
 10
147.5554094684
 20
55.2462203707
 30
0.0
 11
147.5554094684
 21
56.4962203707
 31
0.0
  0
LINE
  5
47F
330
342
100
AcDbEntity
  8
6802420
  6
Continuous
 62
     7
100
AcDbLine
 10
147.5554094684
 20
56.4962203707
 30
0.0
 11
146.3054094684
 21
56.4962203707
 31
0.0
  0
LINE
  5
480
330
342
100
AcDbEntity
  8
6802420
  6
Continuous
 62
     7
100
AcDbLine
 10
146.3054094684
 20
56.4962203707
 30
0.0
 11
146.3054094684
 21
55.2462203707
 31
0.0
  0
LINE
  5
481
330
342
100
AcDbEntity
  8
6802420
  6
Continuous
 62
     7
100
AcDbLine
 10
146.3054094684
 20
53.2462203707
 30
0.0
 11
147.5554094684
 21
53.2462203707
 31
0.0
  0
LINE
  5
482
330
342
100
AcDbEntity
  8
6802420
  6
Continuous
 62
     7
100
AcDbLine
 10
147.5554094684
 20
53.2462203707
 30
0.0
 11
147.5554094684
 21
54.4962203707
 31
0.0
  0
LINE
  5
483
330
342
100
AcDbEntity
  8
6802420
  6
Continuous
 62
     7
100
AcDbLine
 10
147.5554094684
 20
54.4962203707
 30
0.0
 11
146.3054094684
 21
54.4962203707
 31
0.0
  0
LINE
  5
484
330
342
100
AcDbEntity
  8
6802420
  6
Continuous
 62
     7
100
AcDbLine
 10
146.3054094684
 20
54.4962203707
 30
0.0
 11
146.3054094684
 21
53.2462203707
 31
0.0
  0
LINE
  5
485
330
342
100
AcDbEntity
  8
6802420
  6
Continuous
 62
     7
100
AcDbLine
 10
148.7929094684
 20
61.2462203707
 30
0.0
 11
150.0429094684
 21
61.2462203707
 31
0.0
  0
LINE
  5
486
330
342
100
AcDbEntity
  8
6802420
  6
Continuous
 62
     7
100
AcDbLine
 10
150.0429094684
 20
61.2462203707
 30
0.0
 11
150.0429094684
 21
62.4962203707
 31
0.0
  0
LINE
  5
487
330
342
100
AcDbEntity
  8
6802420
  6
Continuous
 62
     7
100
AcDbLine
 10
150.0429094684
 20
62.4962203707
 30
0.0
 11
148.7929094684
 21
62.4962203707
 31
0.0
  0
LINE
  5
488
330
342
100
AcDbEntity
  8
6802420
  6
Continuous
 62
     7
100
AcDbLine
 10
148.7929094684
 20
62.4962203707
 30
0.0
 11
148.7929094684
 21
61.2462203707
 31
0.0
  0
LINE
  5
489
330
342
100
AcDbEntity
  8
6802420
  6
Continuous
 62
     7
100
AcDbLine
 10
148.7929094684
 20
59.2462203707
 30
0.0
 11
150.0429094684
 21
59.2462203707
 31
0.0
  0
LINE
  5
48A
330
342
100
AcDbEntity
  8
6802420
  6
Continuous
 62
     7
100
AcDbLine
 10
150.0429094684
 20
59.2462203707
 30
0.0
 11
150.0429094684
 21
60.4962203707
 31
0.0
  0
LINE
  5
48B
330
342
100
AcDbEntity
  8
6802420
  6
Continuous
 62
     7
100
AcDbLine
 10
150.0429094684
 20
60.4962203707
 30
0.0
 11
148.7929094684
 21
60.4962203707
 31
0.0
  0
LINE
  5
48C
330
342
100
AcDbEntity
  8
6802420
  6
Continuous
 62
     7
100
AcDbLine
 10
148.7929094684
 20
60.4962203707
 30
0.0
 11
148.7929094684
 21
59.2462203707
 31
0.0
  0
LINE
  5
48D
330
342
100
AcDbEntity
  8
6802420
  6
Continuous
 62
     7
100
AcDbLine
 10
148.7929094684
 20
57.2462203707
 30
0.0
 11
150.0429094684
 21
57.2462203707
 31
0.0
  0
LINE
  5
48E
330
342
100
AcDbEntity
  8
6802420
  6
Continuous
 62
     7
100
AcDbLine
 10
150.0429094684
 20
57.2462203707
 30
0.0
 11
150.0429094684
 21
58.4962203707
 31
0.0
  0
LINE
  5
48F
330
342
100
AcDbEntity
  8
6802420
  6
Continuous
 62
     7
100
AcDbLine
 10
150.0429094684
 20
58.4962203707
 30
0.0
 11
148.7929094684
 21
58.4962203707
 31
0.0
  0
LINE
  5
490
330
342
100
AcDbEntity
  8
6802420
  6
Continuous
 62
     7
100
AcDbLine
 10
148.7929094684
 20
58.4962203707
 30
0.0
 11
148.7929094684
 21
57.2462203707
 31
0.0
  0
LINE
  5
491
330
342
100
AcDbEntity
  8
6802420
  6
Continuous
 62
     7
100
AcDbLine
 10
148.7929094684
 20
55.2462203707
 30
0.0
 11
150.0429094684
 21
55.2462203707
 31
0.0
  0
LINE
  5
492
330
342
100
AcDbEntity
  8
6802420
  6
Continuous
 62
     7
100
AcDbLine
 10
150.0429094684
 20
55.2462203707
 30
0.0
 11
150.0429094684
 21
56.4962203707
 31
0.0
  0
LINE
  5
493
330
342
100
AcDbEntity
  8
6802420
  6
Continuous
 62
     7
100
AcDbLine
 10
150.0429094684
 20
56.4962203707
 30
0.0
 11
148.7929094684
 21
56.4962203707
 31
0.0
  0
LINE
  5
494
330
342
100
AcDbEntity
  8
6802420
  6
Continuous
 62
     7
100
AcDbLine
 10
148.7929094684
 20
56.4962203707
 30
0.0
 11
148.7929094684
 21
55.2462203707
 31
0.0
  0
LINE
  5
495
330
342
100
AcDbEntity
  8
6802420
  6
Continuous
 62
     7
100
AcDbLine
 10
148.7929094684
 20
53.2462203707
 30
0.0
 11
150.0429094684
 21
53.2462203707
 31
0.0
  0
LINE
  5
496
330
342
100
AcDbEntity
  8
6802420
  6
Continuous
 62
     7
100
AcDbLine
 10
150.0429094684
 20
53.2462203707
 30
0.0
 11
150.0429094684
 21
54.4962203707
 31
0.0
  0
LINE
  5
497
330
342
100
AcDbEntity
  8
6802420
  6
Continuous
 62
     7
100
AcDbLine
 10
150.0429094684
 20
54.4962203707
 30
0.0
 11
148.7929094684
 21
54.4962203707
 31
0.0
  0
LINE
  5
498
330
342
100
AcDbEntity
  8
6802420
  6
Continuous
 62
     7
100
AcDbLine
 10
148.7929094684
 20
54.4962203707
 30
0.0
 11
148.7929094684
 21
53.2462203707
 31
0.0
  0
LINE
  5
499
330
342
100
AcDbEntity
  8
6802420
  6
Continuous
 62
     7
100
AcDbLine
 10
151.2804094684
 20
61.2462203707
 30
0.0
 11
152.5304094684
 21
61.2462203707
 31
0.0
  0
LINE
  5
49A
330
342
100
AcDbEntity
  8
6802420
  6
Continuous
 62
     7
100
AcDbLine
 10
152.5304094684
 20
61.2462203707
 30
0.0
 11
152.5304094684
 21
62.4962203707
 31
0.0
  0
LINE
  5
49B
330
342
100
AcDbEntity
  8
6802420
  6
Continuous
 62
     7
100
AcDbLine
 10
152.5304094684
 20
62.4962203707
 30
0.0
 11
151.2804094684
 21
62.4962203707
 31
0.0
  0
LINE
  5
49C
330
342
100
AcDbEntity
  8
6802420
  6
Continuous
 62
     7
100
AcDbLine
 10
151.2804094684
 20
62.4962203707
 30
0.0
 11
151.2804094684
 21
61.2462203707
 31
0.0
  0
LINE
  5
49D
330
342
100
AcDbEntity
  8
6802420
  6
Continuous
 62
     7
100
AcDbLine
 10
151.2804094684
 20
59.2462203707
 30
0.0
 11
152.5304094684
 21
59.2462203707
 31
0.0
  0
LINE
  5
49E
330
342
100
AcDbEntity
  8
6802420
  6
Continuous
 62
     7
100
AcDbLine
 10
152.5304094684
 20
59.2462203707
 30
0.0
 11
152.5304094684
 21
60.4962203707
 31
0.0
  0
LINE
  5
49F
330
342
100
AcDbEntity
  8
6802420
  6
Continuous
 62
     7
100
AcDbLine
 10
152.5304094684
 20
60.4962203707
 30
0.0
 11
151.2804094684
 21
60.4962203707
 31
0.0
  0
LINE
  5
4A0
330
342
100
AcDbEntity
  8
6802420
  6
Continuous
 62
     7
100
AcDbLine
 10
151.2804094684
 20
60.4962203707
 30
0.0
 11
151.2804094684
 21
59.2462203707
 31
0.0
  0
LINE
  5
4A1
330
342
100
AcDbEntity
  8
6802420
  6
Continuous
 62
     7
100
AcDbLine
 10
151.2804094684
 20
57.2462203707
 30
0.0
 11
152.5304094684
 21
57.2462203707
 31
0.0
  0
LINE
  5
4A2
330
342
100
AcDbEntity
  8
6802420
  6
Continuous
 62
     7
100
AcDbLine
 10
152.5304094684
 20
57.2462203707
 30
0.0
 11
152.5304094684
 21
58.4962203707
 31
0.0
  0
LINE
  5
4A3
330
342
100
AcDbEntity
  8
6802420
  6
Continuous
 62
     7
100
AcDbLine
 10
152.5304094684
 20
58.4962203707
 30
0.0
 11
151.2804094684
 21
58.4962203707
 31
0.0
  0
LINE
  5
4A4
330
342
100
AcDbEntity
  8
6802420
  6
Continuous
 62
     7
100
AcDbLine
 10
151.2804094684
 20
58.4962203707
 30
0.0
 11
151.2804094684
 21
57.2462203707
 31
0.0
  0
LINE
  5
4A5
330
342
100
AcDbEntity
  8
6802420
  6
Continuous
 62
     7
100
AcDbLine
 10
151.2804094684
 20
55.2462203707
 30
0.0
 11
152.5304094684
 21
55.2462203707
 31
0.0
  0
LINE
  5
4A6
330
342
100
AcDbEntity
  8
6802420
  6
Continuous
 62
     7
100
AcDbLine
 10
152.5304094684
 20
55.2462203707
 30
0.0
 11
152.5304094684
 21
56.4962203707
 31
0.0
  0
LINE
  5
4A7
330
342
100
AcDbEntity
  8
6802420
  6
Continuous
 62
     7
100
AcDbLine
 10
152.5304094684
 20
56.4962203707
 30
0.0
 11
151.2804094684
 21
56.4962203707
 31
0.0
  0
LINE
  5
4A8
330
342
100
AcDbEntity
  8
6802420
  6
Continuous
 62
     7
100
AcDbLine
 10
151.2804094684
 20
56.4962203707
 30
0.0
 11
151.2804094684
 21
55.2462203707
 31
0.0
  0
LINE
  5
4A9
330
342
100
AcDbEntity
  8
6802420
  6
Continuous
 62
     7
100
AcDbLine
 10
151.2804094684
 20
53.2462203707
 30
0.0
 11
152.5304094684
 21
53.2462203707
 31
0.0
  0
LINE
  5
4AA
330
342
100
AcDbEntity
  8
6802420
  6
Continuous
 62
     7
100
AcDbLine
 10
152.5304094684
 20
53.2462203707
 30
0.0
 11
152.5304094684
 21
54.4962203707
 31
0.0
  0
LINE
  5
4AB
330
342
100
AcDbEntity
  8
6802420
  6
Continuous
 62
     7
100
AcDbLine
 10
152.5304094684
 20
54.4962203707
 30
0.0
 11
151.2804094684
 21
54.4962203707
 31
0.0
  0
LINE
  5
4AC
330
342
100
AcDbEntity
  8
6802420
  6
Continuous
 62
     7
100
AcDbLine
 10
151.2804094684
 20
54.4962203707
 30
0.0
 11
151.2804094684
 21
53.2462203707
 31
0.0
  0
LINE
  5
4AD
330
342
100
AcDbEntity
  8
6802420
  6
Continuous
 62
     7
100
AcDbLine
 10
153.7679094684
 20
61.2462203707
 30
0.0
 11
155.0179094684
 21
61.2462203707
 31
0.0
  0
LINE
  5
4AE
330
342
100
AcDbEntity
  8
6802420
  6
Continuous
 62
     7
100
AcDbLine
 10
155.0179094684
 20
61.2462203707
 30
0.0
 11
155.0179094684
 21
62.4962203707
 31
0.0
  0
LINE
  5
4AF
330
342
100
AcDbEntity
  8
6802420
  6
Continuous
 62
     7
100
AcDbLine
 10
155.0179094684
 20
62.4962203707
 30
0.0
 11
153.7679094684
 21
62.4962203707
 31
0.0
  0
LINE
  5
4B0
330
342
100
AcDbEntity
  8
6802420
  6
Continuous
 62
     7
100
AcDbLine
 10
153.7679094684
 20
62.4962203707
 30
0.0
 11
153.7679094684
 21
61.2462203707
 31
0.0
  0
LINE
  5
4B1
330
342
100
AcDbEntity
  8
6802420
  6
Continuous
 62
     7
100
AcDbLine
 10
153.7679094684
 20
59.2462203707
 30
0.0
 11
155.0179094684
 21
59.2462203707
 31
0.0
  0
LINE
  5
4B2
330
342
100
AcDbEntity
  8
6802420
  6
Continuous
 62
     7
100
AcDbLine
 10
155.0179094684
 20
59.2462203707
 30
0.0
 11
155.0179094684
 21
60.4962203707
 31
0.0
  0
LINE
  5
4B3
330
342
100
AcDbEntity
  8
6802420
  6
Continuous
 62
     7
100
AcDbLine
 10
155.0179094684
 20
60.4962203707
 30
0.0
 11
153.7679094684
 21
60.4962203707
 31
0.0
  0
LINE
  5
4B4
330
342
100
AcDbEntity
  8
6802420
  6
Continuous
 62
     7
100
AcDbLine
 10
153.7679094684
 20
60.4962203707
 30
0.0
 11
153.7679094684
 21
59.2462203707
 31
0.0
  0
LINE
  5
4B5
330
342
100
AcDbEntity
  8
6802420
  6
Continuous
 62
     7
100
AcDbLine
 10
153.7679094684
 20
57.2462203707
 30
0.0
 11
155.0179094684
 21
57.2462203707
 31
0.0
  0
LINE
  5
4B6
330
342
100
AcDbEntity
  8
6802420
  6
Continuous
 62
     7
100
AcDbLine
 10
155.0179094684
 20
57.2462203707
 30
0.0
 11
155.0179094684
 21
58.4962203707
 31
0.0
  0
LINE
  5
4B7
330
342
100
AcDbEntity
  8
6802420
  6
Continuous
 62
     7
100
AcDbLine
 10
155.0179094684
 20
58.4962203707
 30
0.0
 11
153.7679094684
 21
58.4962203707
 31
0.0
  0
LINE
  5
4B8
330
342
100
AcDbEntity
  8
6802420
  6
Continuous
 62
     7
100
AcDbLine
 10
153.7679094684
 20
58.4962203707
 30
0.0
 11
153.7679094684
 21
57.2462203707
 31
0.0
  0
LINE
  5
4B9
330
342
100
AcDbEntity
  8
6802420
  6
Continuous
 62
     7
100
AcDbLine
 10
153.7679094684
 20
55.2462203707
 30
0.0
 11
155.0179094684
 21
55.2462203707
 31
0.0
  0
LINE
  5
4BA
330
342
100
AcDbEntity
  8
6802420
  6
Continuous
 62
     7
100
AcDbLine
 10
155.0179094684
 20
55.2462203707
 30
0.0
 11
155.0179094684
 21
56.4962203707
 31
0.0
  0
LINE
  5
4BB
330
342
100
AcDbEntity
  8
6802420
  6
Continuous
 62
     7
100
AcDbLine
 10
155.0179094684
 20
56.4962203707
 30
0.0
 11
153.7679094684
 21
56.4962203707
 31
0.0
  0
LINE
  5
4BC
330
342
100
AcDbEntity
  8
6802420
  6
Continuous
 62
     7
100
AcDbLine
 10
153.7679094684
 20
56.4962203707
 30
0.0
 11
153.7679094684
 21
55.2462203707
 31
0.0
  0
LINE
  5
4BD
330
342
100
AcDbEntity
  8
6802420
  6
Continuous
 62
     7
100
AcDbLine
 10
153.7679094684
 20
53.2462203707
 30
0.0
 11
155.0179094684
 21
53.2462203707
 31
0.0
  0
LINE
  5
4BE
330
342
100
AcDbEntity
  8
6802420
  6
Continuous
 62
     7
100
AcDbLine
 10
155.0179094684
 20
53.2462203707
 30
0.0
 11
155.0179094684
 21
54.4962203707
 31
0.0
  0
LINE
  5
4BF
330
342
100
AcDbEntity
  8
6802420
  6
Continuous
 62
     7
100
AcDbLine
 10
155.0179094684
 20
54.4962203707
 30
0.0
 11
153.7679094684
 21
54.4962203707
 31
0.0
  0
LINE
  5
4C0
330
342
100
AcDbEntity
  8
6802420
  6
Continuous
 62
     7
100
AcDbLine
 10
153.7679094684
 20
54.4962203707
 30
0.0
 11
153.7679094684
 21
53.2462203707
 31
0.0
  0
LINE
  5
4C1
330
342
100
AcDbEntity
  8
6802420
  6
Continuous
 62
     7
100
AcDbLine
 10
156.2554094684
 20
61.2462203707
 30
0.0
 11
157.5054094684
 21
61.2462203707
 31
0.0
  0
LINE
  5
4C2
330
342
100
AcDbEntity
  8
6802420
  6
Continuous
 62
     7
100
AcDbLine
 10
157.5054094684
 20
61.2462203707
 30
0.0
 11
157.5054094684
 21
62.4962203707
 31
0.0
  0
LINE
  5
4C3
330
342
100
AcDbEntity
  8
6802420
  6
Continuous
 62
     7
100
AcDbLine
 10
157.5054094684
 20
62.4962203707
 30
0.0
 11
156.2554094684
 21
62.4962203707
 31
0.0
  0
LINE
  5
4C4
330
342
100
AcDbEntity
  8
6802420
  6
Continuous
 62
     7
100
AcDbLine
 10
156.2554094684
 20
62.4962203707
 30
0.0
 11
156.2554094684
 21
61.2462203707
 31
0.0
  0
LINE
  5
4C5
330
342
100
AcDbEntity
  8
6802420
  6
Continuous
 62
     7
100
AcDbLine
 10
156.2554094684
 20
59.2462203707
 30
0.0
 11
157.5054094684
 21
59.2462203707
 31
0.0
  0
LINE
  5
4C6
330
342
100
AcDbEntity
  8
6802420
  6
Continuous
 62
     7
100
AcDbLine
 10
157.5054094684
 20
59.2462203707
 30
0.0
 11
157.5054094684
 21
60.4962203707
 31
0.0
  0
LINE
  5
4C7
330
342
100
AcDbEntity
  8
6802420
  6
Continuous
 62
     7
100
AcDbLine
 10
157.5054094684
 20
60.4962203707
 30
0.0
 11
156.2554094684
 21
60.4962203707
 31
0.0
  0
LINE
  5
4C8
330
342
100
AcDbEntity
  8
6802420
  6
Continuous
 62
     7
100
AcDbLine
 10
156.2554094684
 20
60.4962203707
 30
0.0
 11
156.2554094684
 21
59.2462203707
 31
0.0
  0
LINE
  5
4C9
330
342
100
AcDbEntity
  8
6802420
  6
Continuous
 62
     7
100
AcDbLine
 10
156.2554094684
 20
57.2462203707
 30
0.0
 11
157.5054094684
 21
57.2462203707
 31
0.0
  0
LINE
  5
4CA
330
342
100
AcDbEntity
  8
6802420
  6
Continuous
 62
     7
100
AcDbLine
 10
157.5054094684
 20
57.2462203707
 30
0.0
 11
157.5054094684
 21
58.4962203707
 31
0.0
  0
LINE
  5
4CB
330
342
100
AcDbEntity
  8
6802420
  6
Continuous
 62
     7
100
AcDbLine
 10
157.5054094684
 20
58.4962203707
 30
0.0
 11
156.2554094684
 21
58.4962203707
 31
0.0
  0
LINE
  5
4CC
330
342
100
AcDbEntity
  8
6802420
  6
Continuous
 62
     7
100
AcDbLine
 10
156.2554094684
 20
58.4962203707
 30
0.0
 11
156.2554094684
 21
57.2462203707
 31
0.0
  0
LINE
  5
4CD
330
342
100
AcDbEntity
  8
6802420
  6
Continuous
 62
     7
100
AcDbLine
 10
156.2554094684
 20
55.2462203707
 30
0.0
 11
157.5054094684
 21
55.2462203707
 31
0.0
  0
LINE
  5
4CE
330
342
100
AcDbEntity
  8
6802420
  6
Continuous
 62
     7
100
AcDbLine
 10
157.5054094684
 20
55.2462203707
 30
0.0
 11
157.5054094684
 21
56.4962203707
 31
0.0
  0
LINE
  5
4CF
330
342
100
AcDbEntity
  8
6802420
  6
Continuous
 62
     7
100
AcDbLine
 10
157.5054094684
 20
56.4962203707
 30
0.0
 11
156.2554094684
 21
56.4962203707
 31
0.0
  0
LINE
  5
4D0
330
342
100
AcDbEntity
  8
6802420
  6
Continuous
 62
     7
100
AcDbLine
 10
156.2554094684
 20
56.4962203707
 30
0.0
 11
156.2554094684
 21
55.2462203707
 31
0.0
  0
LINE
  5
4D1
330
342
100
AcDbEntity
  8
6802420
  6
Continuous
 62
     7
100
AcDbLine
 10
156.2554094684
 20
53.2462203707
 30
0.0
 11
157.5054094684
 21
53.2462203707
 31
0.0
  0
LINE
  5
4D2
330
342
100
AcDbEntity
  8
6802420
  6
Continuous
 62
     7
100
AcDbLine
 10
157.5054094684
 20
53.2462203707
 30
0.0
 11
157.5054094684
 21
54.4962203707
 31
0.0
  0
LINE
  5
4D3
330
342
100
AcDbEntity
  8
6802420
  6
Continuous
 62
     7
100
AcDbLine
 10
157.5054094684
 20
54.4962203707
 30
0.0
 11
156.2554094684
 21
54.4962203707
 31
0.0
  0
LINE
  5
4D4
330
342
100
AcDbEntity
  8
6802420
  6
Continuous
 62
     7
100
AcDbLine
 10
156.2554094684
 20
54.4962203707
 30
0.0
 11
156.2554094684
 21
53.2462203707
 31
0.0
  0
LINE
  5
4D5
330
342
100
AcDbEntity
  8
6802420
  6
Continuous
 62
     7
100
AcDbLine
 10
158.7429094684
 20
61.2462203707
 30
0.0
 11
159.9929094684
 21
61.2462203707
 31
0.0
  0
LINE
  5
4D6
330
342
100
AcDbEntity
  8
6802420
  6
Continuous
 62
     7
100
AcDbLine
 10
159.9929094684
 20
61.2462203707
 30
0.0
 11
159.9929094684
 21
62.4962203707
 31
0.0
  0
LINE
  5
4D7
330
342
100
AcDbEntity
  8
6802420
  6
Continuous
 62
     7
100
AcDbLine
 10
159.9929094684
 20
62.4962203707
 30
0.0
 11
158.7429094684
 21
62.4962203707
 31
0.0
  0
LINE
  5
4D8
330
342
100
AcDbEntity
  8
6802420
  6
Continuous
 62
     7
100
AcDbLine
 10
158.7429094684
 20
62.4962203707
 30
0.0
 11
158.7429094684
 21
61.2462203707
 31
0.0
  0
LINE
  5
4D9
330
342
100
AcDbEntity
  8
6802420
  6
Continuous
 62
     7
100
AcDbLine
 10
158.7429094684
 20
59.2462203707
 30
0.0
 11
159.9929094684
 21
59.2462203707
 31
0.0
  0
LINE
  5
4DA
330
342
100
AcDbEntity
  8
6802420
  6
Continuous
 62
     7
100
AcDbLine
 10
159.9929094684
 20
59.2462203707
 30
0.0
 11
159.9929094684
 21
60.4962203707
 31
0.0
  0
LINE
  5
4DB
330
342
100
AcDbEntity
  8
6802420
  6
Continuous
 62
     7
100
AcDbLine
 10
159.9929094684
 20
60.4962203707
 30
0.0
 11
158.7429094684
 21
60.4962203707
 31
0.0
  0
LINE
  5
4DC
330
342
100
AcDbEntity
  8
6802420
  6
Continuous
 62
     7
100
AcDbLine
 10
158.7429094684
 20
60.4962203707
 30
0.0
 11
158.7429094684
 21
59.2462203707
 31
0.0
  0
LINE
  5
4DD
330
342
100
AcDbEntity
  8
6802420
  6
Continuous
 62
     7
100
AcDbLine
 10
158.7429094684
 20
57.2462203707
 30
0.0
 11
159.9929094684
 21
57.2462203707
 31
0.0
  0
LINE
  5
4DE
330
342
100
AcDbEntity
  8
6802420
  6
Continuous
 62
     7
100
AcDbLine
 10
159.9929094684
 20
57.2462203707
 30
0.0
 11
159.9929094684
 21
58.4962203707
 31
0.0
  0
LINE
  5
4DF
330
342
100
AcDbEntity
  8
6802420
  6
Continuous
 62
     7
100
AcDbLine
 10
159.9929094684
 20
58.4962203707
 30
0.0
 11
158.7429094684
 21
58.4962203707
 31
0.0
  0
LINE
  5
4E0
330
342
100
AcDbEntity
  8
6802420
  6
Continuous
 62
     7
100
AcDbLine
 10
158.7429094684
 20
58.4962203707
 30
0.0
 11
158.7429094684
 21
57.2462203707
 31
0.0
  0
LINE
  5
4E1
330
342
100
AcDbEntity
  8
6802420
  6
Continuous
 62
     7
100
AcDbLine
 10
158.7429094684
 20
55.2462203707
 30
0.0
 11
159.9929094684
 21
55.2462203707
 31
0.0
  0
LINE
  5
4E2
330
342
100
AcDbEntity
  8
6802420
  6
Continuous
 62
     7
100
AcDbLine
 10
159.9929094684
 20
55.2462203707
 30
0.0
 11
159.9929094684
 21
56.4962203707
 31
0.0
  0
LINE
  5
4E3
330
342
100
AcDbEntity
  8
6802420
  6
Continuous
 62
     7
100
AcDbLine
 10
159.9929094684
 20
56.4962203707
 30
0.0
 11
158.7429094684
 21
56.4962203707
 31
0.0
  0
LINE
  5
4E4
330
342
100
AcDbEntity
  8
6802420
  6
Continuous
 62
     7
100
AcDbLine
 10
158.7429094684
 20
56.4962203707
 30
0.0
 11
158.7429094684
 21
55.2462203707
 31
0.0
  0
LINE
  5
4E5
330
342
100
AcDbEntity
  8
6802420
  6
Continuous
 62
     7
100
AcDbLine
 10
158.7429094684
 20
53.2462203707
 30
0.0
 11
159.9929094684
 21
53.2462203707
 31
0.0
  0
LINE
  5
4E6
330
342
100
AcDbEntity
  8
6802420
  6
Continuous
 62
     7
100
AcDbLine
 10
159.9929094684
 20
53.2462203707
 30
0.0
 11
159.9929094684
 21
54.4962203707
 31
0.0
  0
LINE
  5
4E7
330
342
100
AcDbEntity
  8
6802420
  6
Continuous
 62
     7
100
AcDbLine
 10
159.9929094684
 20
54.4962203707
 30
0.0
 11
158.7429094684
 21
54.4962203707
 31
0.0
  0
LINE
  5
4E8
330
342
100
AcDbEntity
  8
6802420
  6
Continuous
 62
     7
100
AcDbLine
 10
158.7429094684
 20
54.4962203707
 30
0.0
 11
158.7429094684
 21
53.2462203707
 31
0.0
  0
LINE
  5
4E9
330
342
100
AcDbEntity
  8
6802420
  6
Continuous
 62
     7
100
AcDbLine
 10
166.7929094684
 20
64.5073398227
 30
0.0
 11
165.7179094684
 21
64.5073398227
 31
0.0
  0
LINE
  5
4EA
330
342
100
AcDbEntity
  8
6802420
  6
Continuous
 62
     7
100
AcDbLine
 10
165.7179094684
 20
64.5073398227
 30
0.0
 11
165.7179094684
 21
64.5302203707
 31
0.0
  0
LINE
  5
4EB
330
342
100
AcDbEntity
  8
6802420
  6
Continuous
 62
     7
100
AcDbLine
 10
113.3679094684
 20
64.5302203707
 30
0.0
 11
113.3679094684
 21
64.5073398227
 31
0.0
  0
LINE
  5
4EC
330
342
100
AcDbEntity
  8
6802420
  6
Continuous
 62
     7
100
AcDbLine
 10
113.3679094684
 20
64.5073398227
 30
0.0
 11
112.2929094684
 21
64.5073398227
 31
0.0
  0
LINE
  5
4ED
330
342
100
AcDbEntity
  8
6802420
  6
Continuous
 62
     7
100
AcDbLine
 10
113.3679094684
 20
64.5302203707
 30
0.0
 11
113.3679094684
 21
64.6212203707
 31
0.0
  0
LINE
  5
4EE
330
342
100
AcDbEntity
  8
6802420
  6
Continuous
 62
     7
100
AcDbLine
 10
165.7179094684
 20
64.6212203707
 30
0.0
 11
165.7179094684
 21
64.5302203707
 31
0.0
  0
LINE
  5
4EF
330
342
100
AcDbEntity
  8
6802420
  6
Continuous
 62
     7
100
AcDbLine
 10
113.3679094684
 20
64.6212203707
 30
0.0
 11
165.7179094684
 21
64.6212203707
 31
0.0
  0
CIRCLE
  5
4F0
330
342
100
AcDbEntity
  8
6802420
  6
Continuous
 62
     7
100
AcDbCircle
 10
112.8179094684
 20
57.8212203707
 30
0.0
 40
0.1625
  0
CIRCLE
  5
4F1
330
342
100
AcDbEntity
  8
6802420
  6
Continuous
 62
     7
100
AcDbCircle
 10
112.8179094684
 20
52.3212203707
 30
0.0
 40
0.1625
  0
CIRCLE
  5
4F2
330
342
100
AcDbEntity
  8
6802420
  6
Continuous
 62
     7
100
AcDbCircle
 10
112.8179094684
 20
63.3212203707
 30
0.0
 40
0.1625
  0
CIRCLE
  5
4F3
330
342
100
AcDbEntity
  8
6802420
  6
Continuous
 62
     7
100
AcDbCircle
 10
166.2679094684
 20
63.3212203707
 30
0.0
 40
0.1625
  0
CIRCLE
  5
4F4
330
342
100
AcDbEntity
  8
6802420
  6
Continuous
 62
     7
100
AcDbCircle
 10
166.2679094684
 20
52.3212203707
 30
0.0
 40
0.1625
  0
CIRCLE
  5
4F5
330
342
100
AcDbEntity
  8
6802420
  6
Continuous
 62
     7
100
AcDbCircle
 10
166.2679094684
 20
57.8212203707
 30
0.0
 40
0.1625
  0
LINE
  5
4F6
330
342
100
AcDbEntity
  8
ECOPOWERBOARD
  6
Continuous
 62
     7
100
AcDbLine
 10
112.7789094684
 20
57.978970965
 30
0.0
 11
112.7789094684
 21
57.6634697764
 31
0.0
  0
LINE
  5
4F7
330
342
100
AcDbEntity
  8
1M_PHV_T_LOOSE_G
  6
Continuous
 62
     7
100
AcDbLine
 10
113.3179094684
 20
50.3462203707
 30
0.0
 11
113.3179094684
 21
51.1212203707
 31
0.0
  0
LINE
  5
4F8
330
342
100
AcDbEntity
  8
1M_PHV_T_LOOSE_G
  6
Continuous
 62
     7
100
AcDbLine
 10
165.4679094684
 20
50.3462203707
 30
0.0
 11
165.4679094684
 21
51.1212203707
 31
0.0
  0
LINE
  5
4F9
330
342
100
AcDbEntity
  8
1M_PHV_T_LOOSE_G
  6
Continuous
 62
     7
100
AcDbLine
 10
112.0579094684
 20
50.0462203707
 30
0.0
 11
166.7279094684
 21
50.0462203707
 31
0.0
  0
LINE
  5
4FA
330
342
100
AcDbEntity
  8
1M_PHV_T_LOOSE_G
  6
Continuous
 62
     7
100
AcDbLine
 10
166.7279094684
 20
50.0462203707
 30
0.0
 11
166.9929094684
 21
50.3112203707
 31
0.0
  0
LINE
  5
4FB
330
342
100
AcDbEntity
  8
1M_PHV_T_LOOSE_G
  6
Continuous
 62
     7
100
AcDbLine
 10
111.7929094684
 20
50.3112203707
 30
0.0
 11
166.9929094684
 21
50.3112203707
 31
0.0
  0
LINE
  5
4FC
330
342
100
AcDbEntity
  8
1M_PHV_T_LOOSE_G
  6
Continuous
 62
     7
100
AcDbLine
 10
166.9929094684
 20
50.3112203707
 30
0.0
 11
166.9929094684
 21
50.3462203707
 31
0.0
  0
LINE
  5
4FD
330
342
100
AcDbEntity
  8
1M_PHV_T_LOOSE_G
  6
Continuous
 62
     7
100
AcDbLine
 10
112.0579094684
 20
50.0462203707
 30
0.0
 11
111.7929094684
 21
50.3112203707
 31
0.0
  0
LINE
  5
4FE
330
342
100
AcDbEntity
  8
1M_PHV_T_LOOSE_G
  6
Continuous
 62
     7
100
AcDbLine
 10
111.7929094684
 20
50.3112203707
 30
0.0
 11
111.7929094684
 21
50.3462203707
 31
0.0
  0
LINE
  5
4FF
330
342
100
AcDbEntity
  8
1M_PHV_T_LOOSE_G
  6
Continuous
 62
     7
100
AcDbLine
 10
111.7929094684
 20
50.3462203707
 30
0.0
 11
166.9929094684
 21
50.3462203707
 31
0.0
  0
ENDBLK
  5
501
330
342
100
AcDbEntity
  8
0
100
AcDbBlockEnd
  0
BLOCK
  5
5CB
330
502
100
AcDbEntity
  8
0
100
AcDbBlockBegin
  2
SE5
 70
     0
 10
0.0
 20
0.0
 30
0.0
  3
SE5
  1

  0
LINE
  5
504
330
502
100
AcDbEntity
  8
6021520
  6
Continuous
 62
     7
100
AcDbLine
 10
168.1679094684
 20
167.8640401103
 30
0.0
 11
168.1679094684
 21
167.7730401103
 31
0.0
  0
LINE
  5
505
330
502
100
AcDbEntity
  8
6021520
  6
Continuous
 62
     7
100
AcDbLine
 10
168.1679094684
 20
167.7730401103
 30
0.0
 11
168.1679094684
 21
146.2050401103
 31
0.0
  0
LINE
  5
506
330
502
100
AcDbEntity
  8
6021520
  6
Continuous
 62
     7
100
AcDbLine
 10
168.1679094684
 20
146.2050401103
 30
0.0
 11
168.1679094684
 21
146.1140401103
 31
0.0
  0
LINE
  5
507
330
502
100
AcDbEntity
  8
6021520
  6
Continuous
 62
     7
100
AcDbLine
 10
168.1679094684
 20
146.1140401103
 30
0.0
 11
110.9179094684
 21
146.1140401103
 31
0.0
  0
LINE
  5
508
330
502
100
AcDbEntity
  8
6021520
  6
Continuous
 62
     7
100
AcDbLine
 10
110.9179094684
 20
146.1140401103
 30
0.0
 11
110.9179094684
 21
146.2050401103
 31
0.0
  0
LINE
  5
509
330
502
100
AcDbEntity
  8
6021520
  6
Continuous
 62
     7
100
AcDbLine
 10
110.9179094684
 20
146.2050401103
 30
0.0
 11
110.9179094684
 21
167.7730401103
 31
0.0
  0
LINE
  5
50A
330
502
100
AcDbEntity
  8
6021520
  6
Continuous
 62
     7
100
AcDbLine
 10
110.9179094684
 20
167.7730401103
 30
0.0
 11
110.9179094684
 21
167.8640401103
 31
0.0
  0
LINE
  5
50B
330
502
100
AcDbEntity
  8
6021520
  6
Continuous
 62
     7
100
AcDbLine
 10
110.9179094684
 20
167.8640401103
 30
0.0
 11
168.1679094684
 21
167.8640401103
 31
0.0
  0
CIRCLE
  5
50C
330
502
100
AcDbEntity
  8
6021520
  6
Continuous
 62
     7
100
AcDbCircle
 10
114.2874094684
 20
164.2635401103
 30
0.0
 40
0.2
  0
CIRCLE
  5
50D
330
502
100
AcDbEntity
  8
6021520
  6
Continuous
 62
     7
100
AcDbCircle
 10
122.1984094684
 20
158.1135401103
 30
0.0
 40
0.2
  0
CIRCLE
  5
50E
330
502
100
AcDbEntity
  8
6021520
  6
Continuous
 62
     7
100
AcDbCircle
 10
122.1984094684
 20
164.2635401103
 30
0.0
 40
0.2
  0
CIRCLE
  5
50F
330
502
100
AcDbEntity
  8
6021520
  6
Continuous
 62
     7
100
AcDbCircle
 10
164.7984094684
 20
158.1135401103
 30
0.0
 40
0.2
  0
CIRCLE
  5
510
330
502
100
AcDbEntity
  8
6021520
  6
Continuous
 62
     7
100
AcDbCircle
 10
164.7984094684
 20
164.2635401103
 30
0.0
 40
0.2
  0
CIRCLE
  5
511
330
502
100
AcDbEntity
  8
6021520
  6
Continuous
 62
     7
100
AcDbCircle
 10
144.1594094684
 20
158.1135401103
 30
0.0
 40
0.2
  0
CIRCLE
  5
512
330
502
100
AcDbEntity
  8
6021520
  6
Continuous
 62
     7
100
AcDbCircle
 10
144.1594094684
 20
164.2635401103
 30
0.0
 40
0.2
  0
CIRCLE
  5
513
330
502
100
AcDbEntity
  8
6021520
  6
Continuous
 62
     7
100
AcDbCircle
 10
114.2874094684
 20
158.1135401103
 30
0.0
 40
0.2
  0
CIRCLE
  5
514
330
502
100
AcDbEntity
  8
6021520
  6
Continuous
 62
     7
100
AcDbCircle
 10
167.7679094684
 20
153.7935401103
 30
0.0
 40
0.1625
  0
CIRCLE
  5
515
330
502
100
AcDbEntity
  8
6021520
  6
Continuous
 62
     7
100
AcDbCircle
 10
167.7679094684
 20
160.1935401103
 30
0.0
 40
0.1625
  0
CIRCLE
  5
516
330
502
100
AcDbEntity
  8
6021520
  6
Continuous
 62
     7
100
AcDbCircle
 10
167.7679094684
 20
166.5935401103
 30
0.0
 40
0.1625
  0
CIRCLE
  5
517
330
502
100
AcDbEntity
  8
6021520
  6
Continuous
 62
     7
100
AcDbCircle
 10
111.3179094684
 20
147.3935401103
 30
0.0
 40
0.1625
  0
CIRCLE
  5
518
330
502
100
AcDbEntity
  8
6021520
  6
Continuous
 62
     7
100
AcDbCircle
 10
111.3179094684
 20
153.7935401103
 30
0.0
 40
0.1625
  0
CIRCLE
  5
519
330
502
100
AcDbEntity
  8
6021520
  6
Continuous
 62
     7
100
AcDbCircle
 10
111.3179094684
 20
160.1935401103
 30
0.0
 40
0.1625
  0
CIRCLE
  5
51A
330
502
100
AcDbEntity
  8
6021520
  6
Continuous
 62
     7
100
AcDbCircle
 10
111.3179094684
 20
166.5935401103
 30
0.0
 40
0.1625
  0
CIRCLE
  5
51B
330
502
100
AcDbEntity
  8
6021520
  6
Continuous
 62
     7
100
AcDbCircle
 10
167.7679094684
 20
147.3935401103
 30
0.0
 40
0.1625
  0
ARC
  5
51C
330
502
100
AcDbEntity
  8
6021520
  6
Continuous
 62
     7
100
AcDbCircle
 10
121.0124094684
 20
155.8077728067
 30
0.0
 40
0.75
100
AcDbArc
 50
270.0
 51
90.0
  0
LINE
  5
51D
330
502
100
AcDbEntity
  8
6021520
  6
Continuous
 62
     7
100
AcDbLine
 10
121.0124094684
 20
155.0577728067
 30
0.0
 11
120.5124094684
 21
155.0577728067
 31
0.0
  0
ARC
  5
51E
330
502
100
AcDbEntity
  8
6021520
  6
Continuous
 62
     7
100
AcDbCircle
 10
120.5124094684
 20
155.8077728067
 30
0.0
 40
0.7499999999999993
100
AcDbArc
 50
90.0
 51
270.0
  0
LINE
  5
51F
330
502
100
AcDbEntity
  8
6021520
  6
Continuous
 62
     7
100
AcDbLine
 10
120.5124094684
 20
156.5577728067
 30
0.0
 11
121.0124094684
 21
156.5577728067
 31
0.0
  0
ARC
  5
520
330
502
100
AcDbEntity
  8
6021520
  6
Continuous
 62
     7
100
AcDbCircle
 10
121.0124094684
 20
153.9077728087
 30
0.0
 40
0.7500000000000018
100
AcDbArc
 50
270.0
 51
90.0
  0
LINE
  5
521
330
502
100
AcDbEntity
  8
6021520
  6
Continuous
 62
     7
100
AcDbLine
 10
121.0124094684
 20
153.1577728087
 30
0.0
 11
120.5124094684
 21
153.1577728087
 31
0.0
  0
ARC
  5
522
330
502
100
AcDbEntity
  8
6021520
  6
Continuous
 62
     7
100
AcDbCircle
 10
120.5124094684
 20
153.9077728087
 30
0.0
 40
0.7500000000000007
100
AcDbArc
 50
90.0
 51
270.0
  0
LINE
  5
523
330
502
100
AcDbEntity
  8
6021520
  6
Continuous
 62
     7
100
AcDbLine
 10
120.5124094684
 20
154.6577728087
 30
0.0
 11
121.0124094684
 21
154.6577728087
 31
0.0
  0
ARC
  5
524
330
502
100
AcDbEntity
  8
6021520
  6
Continuous
 62
     7
100
AcDbCircle
 10
121.0124094684
 20
152.7827728098
 30
0.0
 40
0.2400000000000013
100
AcDbArc
 50
270.0
 51
90.0
  0
LINE
  5
525
330
502
100
AcDbEntity
  8
6021520
  6
Continuous
 62
     7
100
AcDbLine
 10
121.0124094684
 20
152.5427728098
 30
0.0
 11
120.5124094684
 21
152.5427728098
 31
0.0
  0
ARC
  5
526
330
502
100
AcDbEntity
  8
6021520
  6
Continuous
 62
     7
100
AcDbCircle
 10
120.5124094684
 20
152.7827728098
 30
0.0
 40
0.24
100
AcDbArc
 50
90.0
 51
270.0
  0
LINE
  5
527
330
502
100
AcDbEntity
  8
6021520
  6
Continuous
 62
     7
100
AcDbLine
 10
120.5124094684
 20
153.0227728098
 30
0.0
 11
121.0124094684
 21
153.0227728098
 31
0.0
  0
ARC
  5
528
330
502
100
AcDbEntity
  8
6021520
  6
Continuous
 62
     7
100
AcDbCircle
 10
121.0124094684
 20
156.9327728056
 30
0.0
 40
0.24
100
AcDbArc
 50
270.0
 51
90.0
  0
LINE
  5
529
330
502
100
AcDbEntity
  8
6021520
  6
Continuous
 62
     7
100
AcDbLine
 10
121.0124094684
 20
156.6927728056
 30
0.0
 11
120.5124094684
 21
156.6927728056
 31
0.0
  0
ARC
  5
52A
330
502
100
AcDbEntity
  8
6021520
  6
Continuous
 62
     7
100
AcDbCircle
 10
120.5124094684
 20
156.9327728056
 30
0.0
 40
0.24
100
AcDbArc
 50
90.0
 51
270.0
  0
LINE
  5
52B
330
502
100
AcDbEntity
  8
6021520
  6
Continuous
 62
     7
100
AcDbLine
 10
120.5124094684
 20
157.1727728056
 30
0.0
 11
121.0124094684
 21
157.1727728056
 31
0.0
  0
CIRCLE
  5
52C
330
502
100
AcDbEntity
  8
6021520
  6
Continuous
 62
     7
100
AcDbCircle
 10
115.3429094684
 20
148.8640401103
 30
0.0
 40
0.63475
  0
CIRCLE
  5
52D
330
502
100
AcDbEntity
  8
6021520
  6
Continuous
 62
     7
100
AcDbCircle
 10
115.3429094684
 20
148.8640401103
 30
0.0
 40
0.35
  0
CIRCLE
  5
52E
330
502
100
AcDbEntity
  8
6021520
  6
Continuous
 62
     7
100
AcDbCircle
 10
117.8429094684
 20
148.8640401103
 30
0.0
 40
0.63475
  0
CIRCLE
  5
52F
330
502
100
AcDbEntity
  8
6021520
  6
Continuous
 62
     7
100
AcDbCircle
 10
117.8429094684
 20
148.8640401103
 30
0.0
 40
0.35
  0
CIRCLE
  5
530
330
502
100
AcDbEntity
  8
6021520
  6
Continuous
 62
     7
100
AcDbCircle
 10
125.5679094684
 20
151.1595401103
 30
0.0
 40
0.08
  0
CIRCLE
  5
531
330
502
100
AcDbEntity
  8
6021520
  6
Continuous
 62
     7
100
AcDbCircle
 10
126.5679094684
 20
151.1595401103
 30
0.0
 40
0.08
  0
ARC
  5
532
330
502
100
AcDbEntity
  8
6021520
  6
Continuous
 62
     7
100
AcDbCircle
 10
161.8379094684
 20
163.6560401103
 30
0.0
 40
0.3574999999999995
100
AcDbArc
 50
90.0
 51
270.0
  0
LINE
  5
533
330
502
100
AcDbEntity
  8
6021520
  6
Continuous
 62
     7
100
AcDbLine
 10
161.8379094684
 20
163.2985401103
 30
0.0
 11
162.1229094684
 21
163.2985401103
 31
0.0
  0
ARC
  5
534
330
502
100
AcDbEntity
  8
6021520
  6
Continuous
 62
     7
100
AcDbCircle
 10
162.1229094684
 20
163.6560401103
 30
0.0
 40
0.3574999999999995
100
AcDbArc
 50
270.0
 51
90.0
  0
LINE
  5
535
330
502
100
AcDbEntity
  8
6021520
  6
Continuous
 62
     7
100
AcDbLine
 10
162.1229094684
 20
164.0135401103
 30
0.0
 11
161.8379094684
 21
164.0135401103
 31
0.0
  0
CIRCLE
  5
536
330
502
100
AcDbEntity
  8
6021520
  6
Continuous
 62
     7
100
AcDbCircle
 10
116.8554094684
 20
161.7560401103
 30
0.0
 40
0.8750000000000001
  0
CIRCLE
  5
537
330
502
100
AcDbEntity
  8
6021520
  6
Continuous
 62
     7
100
AcDbCircle
 10
116.8554094684
 20
165.5560401103
 30
0.0
 40
0.8750000000000001
  0
ARC
  5
538
330
502
100
AcDbEntity
  8
6021520
  6
Continuous
 62
     7
100
AcDbCircle
 10
116.9629094684
 20
163.6560401103
 30
0.0
 40
0.3574999999999995
100
AcDbArc
 50
90.0
 51
270.0
  0
LINE
  5
539
330
502
100
AcDbEntity
  8
6021520
  6
Continuous
 62
     7
100
AcDbLine
 10
116.9629094684
 20
163.2985401103
 30
0.0
 11
117.2479094684
 21
163.2985401103
 31
0.0
  0
ARC
  5
53A
330
502
100
AcDbEntity
  8
6021520
  6
Continuous
 62
     7
100
AcDbCircle
 10
117.2479094684
 20
163.6560401103
 30
0.0
 40
0.3574999999999995
100
AcDbArc
 50
270.0
 51
90.0
  0
LINE
  5
53B
330
502
100
AcDbEntity
  8
6021520
  6
Continuous
 62
     7
100
AcDbLine
 10
117.2479094684
 20
164.0135401103
 30
0.0
 11
116.9629094684
 21
164.0135401103
 31
0.0
  0
ARC
  5
53C
330
502
100
AcDbEntity
  8
6021520
  6
Continuous
 62
     7
100
AcDbCircle
 10
167.0179094684
 20
165.0975401103
 30
0.0
 40
0.3249999999999971
100
AcDbArc
 50
343.5560687412
 51
196.4439312588
  0
ARC
  5
53D
330
502
100
AcDbEntity
  8
6021520
  6
Continuous
 62
     7
100
AcDbCircle
 10
112.0679094684
 20
149.3685401103
 30
0.0
 40
0.3249999999999945
100
AcDbArc
 50
343.5560687412
 51
196.4439312588
  0
ARC
  5
53E
330
502
100
AcDbEntity
  8
6021520
  6
Continuous
 62
     7
100
AcDbCircle
 10
112.0679094684
 20
165.0975401103
 30
0.0
 40
0.3249999999999933
100
AcDbArc
 50
343.5560687412
 51
196.4439312588
  0
ARC
  5
53F
330
502
100
AcDbEntity
  8
6021520
  6
Continuous
 62
     7
100
AcDbCircle
 10
167.0179094684
 20
149.1845401103
 30
0.0
 40
0.3249999999999978
100
AcDbArc
 50
163.5560687412
 51
16.4439312588
  0
ARC
  5
540
330
502
100
AcDbEntity
  8
6021520
  6
Continuous
 62
     7
100
AcDbCircle
 10
112.0679094684
 20
149.1845401103
 30
0.0
 40
0.3250000000000051
100
AcDbArc
 50
163.5560687412
 51
16.4439312588
  0
ARC
  5
541
330
502
100
AcDbEntity
  8
6021520
  6
Continuous
 62
     7
100
AcDbCircle
 10
167.0179094684
 20
164.9135401103
 30
0.0
 40
0.3249999999999978
100
AcDbArc
 50
163.5560687412
 51
16.4439312588
  0
ARC
  5
542
330
502
100
AcDbEntity
  8
6021520
  6
Continuous
 62
     7
100
AcDbCircle
 10
112.0679094684
 20
164.9135401103
 30
0.0
 40
0.325000000000004
100
AcDbArc
 50
163.5560687412
 51
16.4439312588
  0
ARC
  5
543
330
502
100
AcDbEntity
  8
6021520
  6
Continuous
 62
     7
100
AcDbCircle
 10
167.0179094684
 20
149.3685401103
 30
0.0
 40
0.3249999999999978
100
AcDbArc
 50
343.5560687412
 51
196.4439312588
  0
CIRCLE
  5
544
330
502
100
AcDbEntity
  8
6021520
  6
Continuous
 62
     7
100
AcDbCircle
 10
138.1679094684
 20
160.2685401103
 30
0.0
 40
0.1249999999999999
  0
CIRCLE
  5
545
330
502
100
AcDbEntity
  8
6021520
  6
Continuous
 62
     7
100
AcDbCircle
 10
140.9179094684
 20
160.2685401103
 30
0.0
 40
0.1249999999999999
  0
ARC
  5
546
330
502
100
AcDbEntity
  8
6021520
  6
Continuous
 62
     7
100
AcDbCircle
 10
117.8429094684
 20
151.3640401103
 30
0.0
 40
0.7500000000000013
100
AcDbArc
 50
120.0
 51
240.0
  0
LINE
  5
547
330
502
100
AcDbEntity
  8
6021520
  6
Continuous
 62
     7
100
AcDbLine
 10
117.4679094684
 20
152.1140401103
 30
0.0
 11
117.4679094684
 21
152.0135591632
 31
0.0
  0
LINE
  5
548
330
502
100
AcDbEntity
  8
6021520
  6
Continuous
 62
     7
100
AcDbLine
 10
118.2179094684
 20
152.1140401103
 30
0.0
 11
117.4679094684
 21
152.1140401103
 31
0.0
  0
LINE
  5
549
330
502
100
AcDbEntity
  8
6021520
  6
Continuous
 62
     7
100
AcDbLine
 10
118.2179094684
 20
152.0135591632
 30
0.0
 11
118.2179094684
 21
152.1140401103
 31
0.0
  0
ARC
  5
54A
330
502
100
AcDbEntity
  8
6021520
  6
Continuous
 62
     7
100
AcDbCircle
 10
117.8429094684
 20
151.3640401103
 30
0.0
 40
0.7500000000000013
100
AcDbArc
 50
300.0
 51
60.0
  0
LINE
  5
54B
330
502
100
AcDbEntity
  8
6021520
  6
Continuous
 62
     7
100
AcDbLine
 10
118.2179094684
 20
150.6140401103
 30
0.0
 11
118.2179094684
 21
150.7145210575
 31
0.0
  0
LINE
  5
54C
330
502
100
AcDbEntity
  8
6021520
  6
Continuous
 62
     7
100
AcDbLine
 10
117.4679094684
 20
150.6140401103
 30
0.0
 11
118.2179094684
 21
150.6140401103
 31
0.0
  0
LINE
  5
54D
330
502
100
AcDbEntity
  8
6021520
  6
Continuous
 62
     7
100
AcDbLine
 10
117.4679094684
 20
150.7145210575
 30
0.0
 11
117.4679094684
 21
150.6140401103
 31
0.0
  0
LINE
  5
54E
330
502
100
AcDbEntity
  8
6021520
  6
Continuous
 62
     7
100
AcDbLine
 10
143.8805670916
 20
154.1457901103
 30
0.0
 11
143.7427247149
 21
153.9070401103
 31
0.0
  0
LINE
  5
54F
330
502
100
AcDbEntity
  8
6021520
  6
Continuous
 62
     7
100
AcDbLine
 10
144.1562518452
 20
154.1457901103
 30
0.0
 11
143.8805670916
 21
154.1457901103
 31
0.0
  0
LINE
  5
550
330
502
100
AcDbEntity
  8
6021520
  6
Continuous
 62
     7
100
AcDbLine
 10
144.2940942219
 20
153.9070401103
 30
0.0
 11
144.1562518452
 21
154.1457901103
 31
0.0
  0
LINE
  5
551
330
502
100
AcDbEntity
  8
6021520
  6
Continuous
 62
     7
100
AcDbLine
 10
144.1562518452
 20
153.6682901103
 30
0.0
 11
144.2940942219
 21
153.9070401103
 31
0.0
  0
LINE
  5
552
330
502
100
AcDbEntity
  8
6021520
  6
Continuous
 62
     7
100
AcDbLine
 10
143.8805670916
 20
153.6682901103
 30
0.0
 11
144.1562518452
 21
153.6682901103
 31
0.0
  0
LINE
  5
553
330
502
100
AcDbEntity
  8
6021520
  6
Continuous
 62
     7
100
AcDbLine
 10
143.7427247149
 20
153.9070401103
 30
0.0
 11
143.8805670916
 21
153.6682901103
 31
0.0
  0
LINE
  5
554
330
502
100
AcDbEntity
  8
6601630
  6
Continuous
 62
     7
100
AcDbLine
 10
110.8179094684
 20
167.6965401103
 30
0.0
 11
110.8179094684
 21
146.2905401103
 31
0.0
  0
LINE
  5
555
330
502
100
AcDbEntity
  8
6601630
  6
Continuous
 62
     7
100
AcDbLine
 10
110.8342543691
 20
146.2295401103
 30
0.0
 11
110.9179094684
 21
146.2295401103
 31
0.0
  0
ARC
  5
556
330
502
100
AcDbEntity
  8
6601630
  6
Continuous
 62
     7
100
AcDbCircle
 10
110.9399094684
 20
146.2905401103
 30
0.0
 40
0.1219999999999999
100
AcDbArc
 50
210.0
 51
259.6111421845
  0
ARC
  5
557
330
502
100
AcDbEntity
  8
6601630
  6
Continuous
 62
     7
100
AcDbCircle
 10
110.9399094684
 20
146.2905401103
 30
0.0
 40
0.1220000000000215
100
AcDbArc
 50
180.0
 51
210.0
  0
ARC
  5
558
330
502
100
AcDbEntity
  8
6601630
  6
Continuous
 62
     7
100
AcDbCircle
 10
110.9399094684
 20
167.6965401103
 30
0.0
 40
0.1219999999999999
100
AcDbArc
 50
100.3888578155
 51
150.0
  0
ARC
  5
559
330
502
100
AcDbEntity
  8
6601630
  6
Continuous
 62
     7
100
AcDbCircle
 10
110.9399094684
 20
167.6965401103
 30
0.0
 40
0.1219999999999988
100
AcDbArc
 50
150.0
 51
180.0
  0
LINE
  5
55A
330
502
100
AcDbEntity
  8
6601630
  6
Continuous
 62
     7
100
AcDbLine
 10
110.8342543691
 20
167.7575401103
 30
0.0
 11
110.9179094684
 21
167.7575401103
 31
0.0
  0
LINE
  5
55B
330
502
100
AcDbEntity
  8
6601630
  6
Continuous
 62
     7
100
AcDbLine
 10
110.9179094684
 20
146.2296401103
 30
0.0
 11
110.8342543691
 21
146.2296401103
 31
0.0
  0
ELLIPSE
  5
55C
330
502
100
AcDbEntity
  8
6601630
  6
Continuous
 62
     7
100
AcDbEllipse
 10
110.9399094684
 20
146.2905401103
 30
0.0
 11
0.1219999999999666
 21
1.024874629607098E-12
 31
0.0
210
0.0
220
0.0
230
1.0
 40
0.9983606557
 41
3.141592653581379
 42
3.66519142917955
  0
LINE
  5
55D
330
502
100
AcDbEntity
  8
6601630
  6
Continuous
 62
     7
100
AcDbLine
 10
110.9179094684
 20
167.7574401103
 30
0.0
 11
110.8342543691
 21
167.7574401103
 31
0.0
  0
ELLIPSE
  5
55E
330
502
100
AcDbEntity
  8
6601630
  6
Continuous
 62
     7
100
AcDbEllipse
 10
110.9399094684
 20
167.6965401103
 30
0.0
 11
0.1220000000000554
 21
1.193489751472043E-13
 31
0.0
210
0.0
220
0.0
230
1.0
 40
0.9983606557
 41
2.617993877990344
 42
3.141592653589747
  0
ARC
  5
55F
330
502
100
AcDbEntity
  8
6601630
  6
Continuous
 62
     7
100
AcDbCircle
 10
112.0679094684
 20
165.0975401103
 30
0.0
 40
0.3250000000000001
100
AcDbArc
 50
196.4439312577
 51
343.5560687423
  0
CIRCLE
  5
560
330
502
100
AcDbEntity
  8
6601630
  6
Continuous
 62
     7
100
AcDbCircle
 10
111.3179094684
 20
166.5935401103
 30
0.0
 40
0.125
  0
CIRCLE
  5
561
330
502
100
AcDbEntity
  8
6601630
  6
Continuous
 62
     7
100
AcDbCircle
 10
111.3179094684
 20
153.7935401103
 30
0.0
 40
0.125
  0
CIRCLE
  5
562
330
502
100
AcDbEntity
  8
6601630
  6
Continuous
 62
     7
100
AcDbCircle
 10
111.3179094684
 20
160.1935401103
 30
0.0
 40
0.125
  0
CIRCLE
  5
563
330
502
100
AcDbEntity
  8
6601630
  6
Continuous
 62
     7
100
AcDbCircle
 10
111.3179094684
 20
147.3935401103
 30
0.0
 40
0.125
  0
ARC
  5
564
330
502
100
AcDbEntity
  8
6601630
  6
Continuous
 62
     7
100
AcDbCircle
 10
112.0679094684
 20
149.3685401103
 30
0.0
 40
0.3250000000000001
100
AcDbArc
 50
196.4439312594
 51
343.5560687406
  0
LINE
  5
565
330
502
100
AcDbEntity
  8
6601635
  6
Continuous
 62
     7
100
AcDbLine
 10
168.2679094684
 20
167.6965401103
 30
0.0
 11
168.2679094684
 21
146.2905401103
 31
0.0
  0
LINE
  5
566
330
502
100
AcDbEntity
  8
6601635
  6
Continuous
 62
     7
100
AcDbLine
 10
168.2515645677
 20
146.2295401103
 30
0.0
 11
168.1679094684
 21
146.2295401103
 31
0.0
  0
ARC
  5
567
330
502
100
AcDbEntity
  8
6601635
  6
Continuous
 62
     7
100
AcDbCircle
 10
168.1459094684
 20
146.2905401103
 30
0.0
 40
0.1219999999999999
100
AcDbArc
 50
280.3888578155
 51
330.0
  0
ARC
  5
568
330
502
100
AcDbEntity
  8
6601635
  6
Continuous
 62
     7
100
AcDbCircle
 10
168.1459094684
 20
146.2905401103
 30
0.0
 40
0.1219999999999997
100
AcDbArc
 50
330.0
 51
0.0
  0
ARC
  5
569
330
502
100
AcDbEntity
  8
6601635
  6
Continuous
 62
     7
100
AcDbCircle
 10
168.1459094684
 20
167.6965401103
 30
0.0
 40
0.1219999999999999
100
AcDbArc
 50
30.0
 51
79.6111421845
  0
ARC
  5
56A
330
502
100
AcDbEntity
  8
6601635
  6
Continuous
 62
     7
100
AcDbCircle
 10
168.1459094684
 20
167.6965401103
 30
0.0
 40
0.1220000000000001
100
AcDbArc
 50
0.0
 51
30.0
  0
LINE
  5
56B
330
502
100
AcDbEntity
  8
6601635
  6
Continuous
 62
     7
100
AcDbLine
 10
168.2515645677
 20
167.7575401103
 30
0.0
 11
168.1679094684
 21
167.7575401103
 31
0.0
  0
LINE
  5
56C
330
502
100
AcDbEntity
  8
6601635
  6
Continuous
 62
     7
100
AcDbLine
 10
168.1679094684
 20
146.2296401103
 30
0.0
 11
168.2515645677
 21
146.2296401103
 31
0.0
  0
ELLIPSE
  5
56D
330
502
100
AcDbEntity
  8
6601635
  6
Continuous
 62
     7
100
AcDbEllipse
 10
168.1459094684
 20
146.2905401103
 30
0.0
 11
-0.1219999999999607
 21
-1.264266469291897E-12
 31
0.0
210
0.0
220
0.0
230
1.0
 40
0.9983606557
 41
2.617993877981621
 42
3.141592653589793
  0
LINE
  5
56E
330
502
100
AcDbEntity
  8
6601635
  6
Continuous
 62
     7
100
AcDbLine
 10
168.1679094684
 20
167.7574401103
 30
0.0
 11
168.2515645677
 21
167.7574401103
 31
0.0
  0
ELLIPSE
  5
56F
330
502
100
AcDbEntity
  8
6601635
  6
Continuous
 62
     7
100
AcDbEllipse
 10
168.1459094684
 20
167.6965401103
 30
0.0
 11
-0.1220000000000034
 21
-1.557087792036782E-12
 31
0.0
210
0.0
220
0.0
230
1.0
 40
0.9983606557
 41
3.14159265358961
 42
3.665191429175484
  0
ARC
  5
570
330
502
100
AcDbEntity
  8
6601635
  6
Continuous
 62
     7
100
AcDbCircle
 10
167.0179094684
 20
165.0975401103
 30
0.0
 40
0.3250000000000001
100
AcDbArc
 50
196.4439312588
 51
343.5560687412
  0
CIRCLE
  5
571
330
502
100
AcDbEntity
  8
6601635
  6
Continuous
 62
     7
100
AcDbCircle
 10
167.7679094684
 20
166.5935401103
 30
0.0
 40
0.125
  0
CIRCLE
  5
572
330
502
100
AcDbEntity
  8
6601635
  6
Continuous
 62
     7
100
AcDbCircle
 10
167.7679094684
 20
153.7935401103
 30
0.0
 40
0.125
  0
CIRCLE
  5
573
330
502
100
AcDbEntity
  8
6601635
  6
Continuous
 62
     7
100
AcDbCircle
 10
167.7679094684
 20
160.1935401103
 30
0.0
 40
0.125
  0
CIRCLE
  5
574
330
502
100
AcDbEntity
  8
6601635
  6
Continuous
 62
     7
100
AcDbCircle
 10
167.7679094684
 20
147.3935401103
 30
0.0
 40
0.125
  0
ARC
  5
575
330
502
100
AcDbEntity
  8
6601635
  6
Continuous
 62
     7
100
AcDbCircle
 10
167.0179094684
 20
149.3685401103
 30
0.0
 40
0.3250000000000001
100
AcDbArc
 50
196.4439312588
 51
343.5560687412
  0
CIRCLE
  5
576
330
502
100
AcDbEntity
  8
6301665
  6
Continuous
 62
     7
100
AcDbCircle
 10
112.0679094684
 20
149.3682901103
 30
0.0
 40
0.3
  0
ARC
  5
577
330
502
100
AcDbEntity
  8
6301665
  6
Continuous
 62
     7
100
AcDbCircle
 10
111.3789094684
 20
147.4220401103
 30
0.0
 40
0.125
100
AcDbArc
 50
130.6662656457
 51
279.41893071
  0
CIRCLE
  5
578
330
502
100
AcDbEntity
  8
6301665
  6
Continuous
 62
     7
100
AcDbCircle
 10
112.0679094684
 20
165.0972901103
 30
0.0
 40
0.3
  0
LINE
  5
579
330
502
100
AcDbEntity
  8
6301665
  6
Continuous
 62
     7
100
AcDbLine
 10
111.287521354
 20
166.4722901103
 30
0.0
 11
111.3482975829
 21
166.4722901103
 31
0.0
  0
CIRCLE
  5
57A
330
502
100
AcDbEntity
  8
6301665
  6
Continuous
 62
     7
100
AcDbCircle
 10
167.0179094684
 20
149.3682901103
 30
0.0
 40
0.3
  0
ARC
  5
57B
330
502
100
AcDbEntity
  8
6301665
  6
Continuous
 62
     7
100
AcDbCircle
 10
167.7069094684
 20
147.4220401103
 30
0.0
 40
0.125
100
AcDbArc
 50
0.0
 51
49.3337343519
  0
ARC
  5
57C
330
502
100
AcDbEntity
  8
6301665
  6
Continuous
 62
     7
100
AcDbCircle
 10
167.7069094684
 20
147.4220401103
 30
0.0
 40
0.125
100
AcDbArc
 50
260.5810692924
 51
0.0
  0
CIRCLE
  5
57D
330
502
100
AcDbEntity
  8
6301665
  6
Continuous
 62
     7
100
AcDbCircle
 10
167.0179094684
 20
165.0972901103
 30
0.0
 40
0.3
  0
LINE
  5
57E
330
502
100
AcDbEntity
  8
6301665
  6
Continuous
 62
     7
100
AcDbLine
 10
167.737521354
 20
166.4722901103
 30
0.0
 11
167.7982975829
 21
166.4722901103
 31
0.0
  0
LINE
  5
57F
330
502
100
AcDbEntity
  8
1M_PHV_T_LOOSE_G
  6
Continuous
 62
     7
100
AcDbLine
 10
166.9218434512
 20
149.0840871541
 30
0.0
 11
166.9218434512
 21
149.6524930666
 31
0.0
  0
LINE
  5
580
330
502
100
AcDbEntity
  8
1M_PHV_T_LOOSE_G
  6
Continuous
 62
     7
100
AcDbLine
 10
166.9218434512
 20
164.8130871541
 30
0.0
 11
166.9218434512
 21
165.3814930666
 31
0.0
  0
LINE
  5
581
330
502
100
AcDbEntity
  8
1M_PHV_T_LOOSE_G
  6
Continuous
 62
     7
100
AcDbLine
 10
166.9218434512
 20
167.8640401103
 30
0.0
 11
166.9218434512
 21
168.1179740932
 31
0.0
  0
LINE
  5
582
330
502
100
AcDbEntity
  8
1M_PHV_T_LOOSE_G
  6
Continuous
 62
     7
100
AcDbLine
 10
166.9218434512
 20
168.1179740932
 30
0.0
 11
166.6968434512
 21
167.8929740932
 31
0.0
  0
LINE
  5
583
330
502
100
AcDbEntity
  8
1M_PHV_T_LOOSE_G
  6
Continuous
 62
     7
100
AcDbLine
 10
166.9218434512
 20
168.1179740932
 30
0.0
 11
111.8639754856
 21
168.1179740932
 31
0.0
  0
LINE
  5
584
330
502
100
AcDbEntity
  8
1M_PHV_T_LOOSE_G
  6
Continuous
 62
     7
100
AcDbLine
 10
111.8639754856
 20
168.1179740932
 30
0.0
 11
112.0889754856
 21
167.8929740932
 31
0.0
  0
LINE
  5
585
330
502
100
AcDbEntity
  8
1M_PHV_T_LOOSE_G
  6
Continuous
 62
     7
100
AcDbLine
 10
166.9929094684
 20
149.0693335918
 30
0.0
 11
166.9929094684
 21
149.6672466289
 31
0.0
  0
LINE
  5
586
330
502
100
AcDbEntity
  8
1M_PHV_T_LOOSE_G
  6
Continuous
 62
     7
100
AcDbLine
 10
166.9929094684
 20
164.7983335918
 30
0.0
 11
166.9929094684
 21
165.3962466289
 31
0.0
  0
LINE
  5
587
330
502
100
AcDbEntity
  8
1M_PHV_T_LOOSE_G
  6
Continuous
 62
     7
100
AcDbLine
 10
166.9929094684
 20
167.8640401103
 30
0.0
 11
166.9929094684
 21
168.1890401103
 31
0.0
  0
LINE
  5
588
330
502
100
AcDbEntity
  8
1M_PHV_T_LOOSE_G
  6
Continuous
 62
     7
100
AcDbLine
 10
166.9929094684
 20
168.1890401103
 30
0.0
 11
111.7929094684
 21
168.1890401103
 31
0.0
  0
LINE
  5
589
330
502
100
AcDbEntity
  8
1M_PHV_T_LOOSE_G
  6
Continuous
 62
     7
100
AcDbLine
 10
111.7929094684
 20
168.1890401103
 30
0.0
 11
111.7929094684
 21
167.8640401103
 31
0.0
  0
LINE
  5
58A
330
502
100
AcDbEntity
  8
1M_PHV_T_LOOSE_G
  6
Continuous
 62
     7
100
AcDbLine
 10
111.7929094684
 20
165.2171858984
 30
0.0
 11
111.7929094684
 21
164.9773943223
 31
0.0
  0
LINE
  5
58B
330
502
100
AcDbEntity
  8
1M_PHV_T_LOOSE_G
  6
Continuous
 62
     7
100
AcDbLine
 10
111.7929094684
 20
149.4881858984
 30
0.0
 11
111.7929094684
 21
149.2483943223
 31
0.0
  0
LINE
  5
58C
330
502
100
AcDbEntity
  8
1M_PHV_T_LOOSE_G
  6
Continuous
 62
     7
100
AcDbLine
 10
111.8639754856
 20
168.1179740932
 30
0.0
 11
111.8639754856
 21
167.8640401103
 31
0.0
  0
LINE
  5
58D
330
502
100
AcDbEntity
  8
1M_PHV_T_LOOSE_G
  6
Continuous
 62
     7
100
AcDbLine
 10
111.8639754856
 20
165.3173149513
 30
0.0
 11
111.8639754856
 21
164.8772652693
 31
0.0
  0
LINE
  5
58E
330
502
100
AcDbEntity
  8
1M_PHV_T_LOOSE_G
  6
Continuous
 62
     7
100
AcDbLine
 10
111.8639754856
 20
149.5883149513
 30
0.0
 11
111.8639754856
 21
149.1482652693
 31
0.0
  0
LINE
  5
58F
330
502
100
AcDbEntity
  8
1M_PHV_T_LOOSE_G
  6
Continuous
 62
     7
100
AcDbLine
 10
166.6968434512
 20
167.8640401103
 30
0.0
 11
166.6968434512
 21
167.8929740932
 31
0.0
  0
LINE
  5
590
330
502
100
AcDbEntity
  8
1M_PHV_T_LOOSE_G
  6
Continuous
 62
     7
100
AcDbLine
 10
166.6968434512
 20
167.8929740932
 30
0.0
 11
112.0889754856
 21
167.8929740932
 31
0.0
  0
LINE
  5
591
330
502
100
AcDbEntity
  8
1M_PHV_T_LOOSE_G
  6
Continuous
 62
     7
100
AcDbLine
 10
112.0889754856
 20
167.8929740932
 30
0.0
 11
112.0889754856
 21
167.8640401103
 31
0.0
  0
LINE
  5
592
330
502
100
AcDbEntity
  8
1M_PHV_T_LOOSE_G
  6
Continuous
 62
     7
100
AcDbLine
 10
112.0889754856
 20
165.3965495679
 30
0.0
 11
112.0889754856
 21
164.7980306528
 31
0.0
  0
LINE
  5
593
330
502
100
AcDbEntity
  8
1M_PHV_T_LOOSE_G
  6
Continuous
 62
     7
100
AcDbLine
 10
112.0889754856
 20
149.6675495679
 30
0.0
 11
112.0889754856
 21
149.0690306528
 31
0.0
  0
LINE
  5
594
330
502
100
AcDbEntity
  8
1M_T_R_LOOSE_GRI
  6
Continuous
 62
     7
100
AcDbLine
 10
116.0610946694
 20
165.1890401103
 30
0.0
 11
117.6497242675
 21
165.1890401103
 31
0.0
  0
LINE
  5
595
330
502
100
AcDbEntity
  8
1M_T_R_LOOSE_GRI
  6
Continuous
 62
     7
100
AcDbLine
 10
116.3199087681
 20
164.8640401103
 30
0.0
 11
117.3909101687
 21
164.8640401103
 31
0.0
  0
LINE
  5
596
330
502
100
AcDbEntity
  8
1M_T_R_LOOSE_GRI
  6
Continuous
 62
     7
100
AcDbLine
 10
116.211079584
 20
164.9640401103
 30
0.0
 11
117.4997393529
 21
164.9640401103
 31
0.0
  0
LINE
  5
597
330
502
100
AcDbEntity
  8
1M_T_R_LOOSE_GRI
  6
Continuous
 62
     7
100
AcDbLine
 10
116.1154527129
 20
165.0890401103
 30
0.0
 11
117.5953662239
 21
165.0890401103
 31
0.0
  0
LINE
  5
598
330
502
100
AcDbEntity
  8
1M_T_R_LOOSE_GRI
  6
Continuous
 62
     7
100
AcDbLine
 10
114.0889157657
 20
164.2390401103
 30
0.0
 11
114.2804094684
 21
164.2390401103
 31
0.0
  0
LINE
  5
599
330
502
100
AcDbEntity
  8
1M_T_R_LOOSE_GRI
  6
Continuous
 62
     7
100
AcDbLine
 10
121.9999157657
 20
164.2390401103
 30
0.0
 11
122.3969031711
 21
164.2390401103
 31
0.0
  0
LINE
  5
59A
330
502
100
AcDbEntity
  8
1M_T_R_LOOSE_GRI
  6
Continuous
 62
     7
100
AcDbLine
 10
143.9609157657
 20
164.2390401103
 30
0.0
 11
144.3579031711
 21
164.2390401103
 31
0.0
  0
LINE
  5
59B
330
502
100
AcDbEntity
  8
1M_T_R_LOOSE_GRI
  6
Continuous
 62
     7
100
AcDbLine
 10
164.5999157657
 20
164.2390401103
 30
0.0
 11
164.9969031711
 21
164.2390401103
 31
0.0
  0
LINE
  5
59C
330
502
100
AcDbEntity
  8
1M_T_R_LOOSE_GRI
  6
Continuous
 62
     7
100
AcDbLine
 10
116.7154377529
 20
163.9140401103
 30
0.0
 11
117.495381184
 21
163.9140401103
 31
0.0
  0
LINE
  5
59D
330
502
100
AcDbEntity
  8
1M_T_R_LOOSE_GRI
  6
Continuous
 62
     7
100
AcDbLine
 10
161.5904377529
 20
163.9140401103
 30
0.0
 11
162.370381184
 21
163.9140401103
 31
0.0
  0
LINE
  5
59E
330
502
100
AcDbEntity
  8
1M_T_R_LOOSE_GRI
  6
Continuous
 62
     7
100
AcDbLine
 10
114.1308855086
 20
164.1390401103
 30
0.0
 11
114.4439334282
 21
164.1390401103
 31
0.0
  0
LINE
  5
59F
330
502
100
AcDbEntity
  8
1M_T_R_LOOSE_GRI
  6
Continuous
 62
     7
100
AcDbLine
 10
122.0418855086
 20
164.1390401103
 30
0.0
 11
122.3549334282
 21
164.1390401103
 31
0.0
  0
LINE
  5
5A0
330
502
100
AcDbEntity
  8
1M_T_R_LOOSE_GRI
  6
Continuous
 62
     7
100
AcDbLine
 10
144.0028855086
 20
164.1390401103
 30
0.0
 11
144.3159334282
 21
164.1390401103
 31
0.0
  0
LINE
  5
5A1
330
502
100
AcDbEntity
  8
1M_T_R_LOOSE_GRI
  6
Continuous
 62
     7
100
AcDbLine
 10
164.6418855086
 20
164.1390401103
 30
0.0
 11
164.9549334282
 21
164.1390401103
 31
0.0
  0
LINE
  5
5A2
330
502
100
AcDbEntity
  8
1M_T_R_LOOSE_GRI
  6
Continuous
 62
     7
100
AcDbLine
 10
116.2029249858
 20
162.3390401103
 30
0.0
 11
117.507893951
 21
162.3390401103
 31
0.0
  0
LINE
  5
5A3
330
502
100
AcDbEntity
  8
1M_T_R_LOOSE_GRI
  6
Continuous
 62
     7
100
AcDbLine
 10
116.01931079
 20
162.0140401103
 30
0.0
 11
117.6915081468
 21
162.0140401103
 31
0.0
  0
LINE
  5
5A4
330
502
100
AcDbEntity
  8
1M_T_R_LOOSE_GRI
  6
Continuous
 62
     7
100
AcDbLine
 10
116.0569979204
 20
162.1140401103
 30
0.0
 11
117.6538210164
 21
162.1140401103
 31
0.0
  0
LINE
  5
5A5
330
502
100
AcDbEntity
  8
1M_T_R_LOOSE_GRI
  6
Continuous
 62
     7
100
AcDbLine
 10
116.125795872
 20
162.2390401103
 30
0.0
 11
117.5850230648
 21
162.2390401103
 31
0.0
  0
LINE
  5
5A6
330
502
100
AcDbEntity
  8
1M_T_R_LOOSE_GRI
  6
Continuous
 62
     7
100
AcDbLine
 10
118.2179094684
 20
150.6765401103
 30
0.0
 11
117.4679094684
 21
150.6765401103
 31
0.0
  0
LINE
  5
5A7
330
502
100
AcDbEntity
  8
1M_T_R_LOOSE_GRI
  6
Continuous
 62
     7
100
AcDbLine
 10
118.5928052945
 20
151.3765401103
 30
0.0
 11
117.0930136423
 21
151.3765401103
 31
0.0
  0
LINE
  5
5A8
330
502
100
AcDbEntity
  8
1M_T_R_LOOSE_GRI
  6
Continuous
 62
     7
100
AcDbLine
 10
118.5903007649
 20
151.3015401103
 30
0.0
 11
117.095518172
 21
151.3015401103
 31
0.0
  0
LINE
  5
5A9
330
502
100
AcDbEntity
  8
1M_T_R_LOOSE_GRI
  6
Continuous
 62
     7
100
AcDbLine
 10
118.5247039756
 20
151.6765401103
 30
0.0
 11
117.1611149612
 21
151.6765401103
 31
0.0
  0
LINE
  5
5AA
330
502
100
AcDbEntity
  8
1M_T_R_LOOSE_GRI
  6
Continuous
 62
     7
100
AcDbLine
 10
118.5870501812
 20
151.4576061275
 30
0.0
 11
117.0987687556
 21
151.4576061275
 31
0.0
  0
LINE
  5
5AB
330
502
100
AcDbEntity
  8
1M_T_R_LOOSE_GRI
  6
Continuous
 62
     7
100
AcDbLine
 10
121.2276177711
 20
152.6765401103
 30
0.0
 11
120.2972011657
 21
152.6765401103
 31
0.0
  0
LINE
  5
5AC
330
502
100
AcDbEntity
  8
1M_T_R_LOOSE_GRI
  6
Continuous
 62
     7
100
AcDbLine
 10
121.541835403
 20
153.3765401103
 30
0.0
 11
119.9829835338
 21
153.3765401103
 31
0.0
  0
LINE
  5
5AD
330
502
100
AcDbEntity
  8
1M_T_R_LOOSE_GRI
  6
Continuous
 62
     7
100
AcDbLine
 10
121.4539770345
 20
153.3015401103
 30
0.0
 11
120.0708419023
 21
153.3015401103
 31
0.0
  0
LINE
  5
5AE
330
502
100
AcDbEntity
  8
1M_T_R_LOOSE_GRI
  6
Continuous
 62
     7
100
AcDbLine
 10
144.1610149849
 20
153.6765401103
 30
0.0
 11
143.8758039519
 21
153.6765401103
 31
0.0
  0
LINE
  5
5AF
330
502
100
AcDbEntity
  8
1M_T_R_LOOSE_GRI
  6
Continuous
 62
     7
100
AcDbLine
 10
121.7258738608
 20
153.6765401103
 30
0.0
 11
119.798945076
 21
153.6765401103
 31
0.0
  0
LINE
  5
5B0
330
502
100
AcDbEntity
  8
1M_T_R_LOOSE_GRI
  6
Continuous
 62
     7
100
AcDbLine
 10
121.6122844214
 20
153.4576061275
 30
0.0
 11
119.9125345155
 21
153.4576061275
 31
0.0
  0
LINE
  5
5B1
330
502
100
AcDbEntity
  8
1M_T_R_LOOSE_GRI
  6
Continuous
 62
     7
100
AcDbLine
 10
121.5978641779
 20
154.3765401103
 30
0.0
 11
119.9269547589
 21
154.3765401103
 31
0.0
  0
LINE
  5
5B2
330
502
100
AcDbEntity
  8
1M_T_R_LOOSE_GRI
  6
Continuous
 62
     7
100
AcDbLine
 10
121.6507254655
 20
154.3015401103
 30
0.0
 11
119.8740934713
 21
154.3015401103
 31
0.0
  0
LINE
  5
5B3
330
502
100
AcDbEntity
  8
1M_T_R_LOOSE_GRI
  6
Continuous
 62
     7
100
AcDbLine
 10
121.5224911496
 20
154.4576061275
 30
0.0
 11
120.0023277872
 21
154.4576061275
 31
0.0
  0
LINE
  5
5B4
330
502
100
AcDbEntity
  8
1M_T_R_LOOSE_GRI
  6
Continuous
 62
     7
100
AcDbLine
 10
121.6260366855
 20
155.3765401103
 30
0.0
 11
119.8987822513
 21
155.3765401103
 31
0.0
  0
LINE
  5
5B5
330
502
100
AcDbEntity
  8
1M_T_R_LOOSE_GRI
  6
Continuous
 62
     7
100
AcDbLine
 10
121.5657885944
 20
155.3015401103
 30
0.0
 11
119.9590303424
 21
155.3015401103
 31
0.0
  0
LINE
  5
5B6
330
502
100
AcDbEntity
  8
1M_T_R_LOOSE_GRI
  6
Continuous
 62
     7
100
AcDbLine
 10
121.3868646129
 20
156.4576061275
 30
0.0
 11
120.137954324
 21
156.4576061275
 31
0.0
  0
LINE
  5
5B7
330
502
100
AcDbEntity
  8
1M_T_R_LOOSE_GRI
  6
Continuous
 62
     7
100
AcDbLine
 10
164.8666443568
 20
158.3015401103
 30
0.0
 11
164.73017458
 21
158.3015401103
 31
0.0
  0
LINE
  5
5B8
330
502
100
AcDbEntity
  8
1M_T_R_LOOSE_GRI
  6
Continuous
 62
     7
100
AcDbLine
 10
144.2276443568
 20
158.3015401103
 30
0.0
 11
144.09117458
 21
158.3015401103
 31
0.0
  0
LINE
  5
5B9
330
502
100
AcDbEntity
  8
1M_T_R_LOOSE_GRI
  6
Continuous
 62
     7
100
AcDbLine
 10
122.2666443568
 20
158.3015401103
 30
0.0
 11
122.13017458
 21
158.3015401103
 31
0.0
  0
LINE
  5
5BA
330
502
100
AcDbEntity
  8
1M_T_R_LOOSE_GRI
  6
Continuous
 62
     7
100
AcDbLine
 10
114.3556443568
 20
158.3015401103
 30
0.0
 11
114.21917458
 21
158.3015401103
 31
0.0
  0
LINE
  5
5BB
330
502
100
AcDbEntity
  8
1M_T_R_LOOSE_GRI
  6
Continuous
 62
     7
100
AcDbLine
 10
140.9808459443
 20
160.3765401103
 30
0.0
 11
140.8549729925
 21
160.3765401103
 31
0.0
  0
LINE
  5
5BC
330
502
100
AcDbEntity
  8
1M_T_R_LOOSE_GRI
  6
Continuous
 62
     7
100
AcDbLine
 10
138.2308459443
 20
160.3765401103
 30
0.0
 11
138.1049729925
 21
160.3765401103
 31
0.0
  0
LINE
  5
5BD
330
502
100
AcDbEntity
  8
1M_T_R_LOOSE_GRI
  6
Continuous
 62
     7
100
AcDbLine
 10
141.0384748034
 20
160.3015401103
 30
0.0
 11
140.7973441334
 21
160.3015401103
 31
0.0
  0
LINE
  5
5BE
330
502
100
AcDbEntity
  8
1M_T_R_LOOSE_GRI
  6
Continuous
 62
     7
100
AcDbLine
 10
138.2884748034
 20
160.3015401103
 30
0.0
 11
138.0473441334
 21
160.3015401103
 31
0.0
  0
LINE
  5
5BF
330
502
100
AcDbEntity
  8
1M_T_R_LOOSE_GRI
  6
Continuous
 62
     7
100
AcDbLine
 10
117.6438286145
 20
161.3765401103
 30
0.0
 11
116.0669903223
 21
161.3765401103
 31
0.0
  0
LINE
  5
5C0
330
502
100
AcDbEntity
  8
1M_T_R_LOOSE_GRI
  6
Continuous
 62
     7
100
AcDbLine
 10
117.6031091073
 20
161.3015401103
 30
0.0
 11
116.1077098295
 21
161.3015401103
 31
0.0
  0
LINE
  5
5C1
330
502
100
AcDbEntity
  8
1M_T_R_LOOSE_GRI
  6
Continuous
 62
     7
100
AcDbLine
 10
121.7508388688
 20
155.6765401103
 30
0.0
 11
119.773980068
 21
155.6765401103
 31
0.0
  0
LINE
  5
5C2
330
502
100
AcDbEntity
  8
1M_T_R_LOOSE_GRI
  6
Continuous
 62
     7
100
AcDbLine
 10
121.6756464523
 20
155.4576061275
 30
0.0
 11
119.8491724845
 21
155.4576061275
 31
0.0
  0
LINE
  5
5C3
330
502
100
AcDbEntity
  8
1M_T_R_LOOSE_GRI
  6
Continuous
 62
     7
100
AcDbLine
 10
121.5012895706
 20
156.3765401103
 30
0.0
 11
120.0235293662
 21
156.3765401103
 31
0.0
  0
LINE
  5
5C4
330
502
100
AcDbEntity
  8
1M_T_R_LOOSE_GRI
  6
Continuous
 62
     7
100
AcDbLine
 10
121.5769392284
 20
156.3015401103
 30
0.0
 11
119.9478797084
 21
156.3015401103
 31
0.0
  0
LINE
  5
5C5
330
502
100
AcDbEntity
  8
1M_T_R_LOOSE_GRI
  6
Continuous
 62
     7
100
AcDbLine
 10
116.2029249858
 20
166.1390401103
 30
0.0
 11
117.507893951
 21
166.1390401103
 31
0.0
  0
LINE
  5
5C6
330
502
100
AcDbEntity
  8
1M_T_R_LOOSE_GRI
  6
Continuous
 62
     7
100
AcDbLine
 10
116.01931079
 20
165.8140401103
 30
0.0
 11
117.6915081468
 21
165.8140401103
 31
0.0
  0
LINE
  5
5C7
330
502
100
AcDbEntity
  8
1M_T_R_LOOSE_GRI
  6
Continuous
 62
     7
100
AcDbLine
 10
116.0569979204
 20
165.9140401103
 30
0.0
 11
117.6538210164
 21
165.9140401103
 31
0.0
  0
LINE
  5
5C8
330
502
100
AcDbEntity
  8
1M_T_R_LOOSE_GRI
  6
Continuous
 62
     7
100
AcDbLine
 10
116.125795872
 20
166.0390401103
 30
0.0
 11
117.5850230648
 21
166.0390401103
 31
0.0
  0
LINE
  5
5C9
330
502
100
AcDbEntity
  8
T_R_LOOSE_GRILLE
  6
Continuous
 62
     7
100
AcDbLine
 10
114.2804094684
 20
164.4634175728
 30
0.0
 11
114.2804094684
 21
164.1390401103
 31
0.0
  0
LINE
  5
5CA
330
502
100
AcDbEntity
  8
T_R_LOOSE_GRILLE
  6
Continuous
 62
     7
100
AcDbLine
 10
114.2804094684
 20
158.3015401103
 30
0.0
 11
114.2804094684
 21
157.9136626479
 31
0.0
  0
ENDBLK
  5
5CC
330
502
100
AcDbEntity
  8
0
100
AcDbBlockEnd
  0
ENDSEC
  0
SECTION
  2
ENTITIES
  0
TEXT
  5
40
330
1F
100
AcDbEntity
  8
Default
  6
Continuous
 62
     7
100
AcDbText
 10
125.814789986
 20
191.9952469123
 30
0.0
 40
5.0
  1
%%uT1000R
  7
SEACAD_arial_ttfB
 11
125.814789986
 21
196.9952469123
 31
0.0
100
AcDbText
 73
     3
  0
INSERT
  5
43
330
1F
100
AcDbEntity
  8
Default
100
AcDbBlockReference
  2
SE
 10
0.0
 20
0.0
 30
0.0
  0
INSERT
  5
9E
330
1F
100
AcDbEntity
  8
Default
100
AcDbBlockReference
  2
SE1
 10
0.0
 20
0.0
 30
0.0
  0
INSERT
  5
112
330
1F
100
AcDbEntity
  8
Default
100
AcDbBlockReference
  2
SE2
 10
0.0
 20
0.0
 30
0.0
  0
INSERT
  5
185
330
1F
100
AcDbEntity
  8
Default
100
AcDbBlockReference
  2
SE3
 10
0.0
 20
0.0
 30
0.0
  0
INSERT
  5
343
330
1F
100
AcDbEntity
  8
Default
100
AcDbBlockReference
  2
SE4
 10
0.0
 20
0.0
 30
0.0
  0
INSERT
  5
503
330
1F
100
AcDbEntity
  8
Default
100
AcDbBlockReference
  2
SE5
 10
0.0
 20
0.0
 30
0.0
  0
ENDSEC
  0
SECTION
  2
OBJECTS
  0
DICTIONARY
  5
C
330
0
100
AcDbDictionary
281
     1
  3
ACAD_GROUP
350
D
  3
ACAD_LAYOUT
350
1A
  3
ACAD_MATERIAL
350
3B
  3
ACAD_MLEADERSTYLE
350
5CF
  3
ACAD_MLINESTYLE
350
17
  3
ACAD_PLOTSETTINGS
350
19
  3
ACAD_PLOTSTYLENAME
350
E
  3
ACAD_VISUALSTYLE
350
2A
  3
AcDbVariableDictionary
350
5CD
  0
DICTIONARY
  5
D
102
{ACAD_REACTORS
330
C
102
}
330
C
100
AcDbDictionary
281
     1
  0
DICTIONARY
  5
1A
102
{ACAD_REACTORS
330
C
102
}
330
C
100
AcDbDictionary
281
     1
  3
Layout1
350
1E
  3
Model
350
22
  0
DICTIONARY
  5
3B
102
{ACAD_REACTORS
330
C
102
}
330
C
100
AcDbDictionary
281
     1
  3
ByBlock
350
3D
  3
ByLayer
350
3C
  3
Global
350
3E
  0
DICTIONARY
  5
5CF
102
{ACAD_REACTORS
330
C
102
}
330
C
100
AcDbDictionary
281
     1
  0
DICTIONARY
  5
17
102
{ACAD_REACTORS
330
C
102
}
330
C
100
AcDbDictionary
281
     1
  3
Standard
350
18
  0
DICTIONARY
  5
19
102
{ACAD_REACTORS
330
C
102
}
330
C
100
AcDbDictionary
281
     1
  0
ACDBDICTIONARYWDFLT
  5
E
102
{ACAD_REACTORS
330
C
102
}
330
C
100
AcDbDictionary
281
     1
  3
Normal
350
F
100
AcDbDictionaryWithDefault
340
F
  0
DICTIONARY
  5
2A
102
{ACAD_REACTORS
330
C
102
}
330
C
100
AcDbDictionary
281
     1
  3
2dWireframe
350
2F
  3
3D Hidden
350
31
  3
3dWireframe
350
30
  3
Basic
350
32
  3
Brighten
350
36
  3
ColorChange
350
3A
  3
Conceptual
350
34
  3
Dim
350
35
  3
Facepattern
350
39
  3
Flat
350
2B
  3
FlatWithEdges
350
2C
  3
Gouraud
350
2D
  3
GouraudWithEdges
350
2E
  3
Linepattern
350
38
  3
Realistic
350
33
  3
Thicken
350
37
  0
DICTIONARY
  5
5CD
102
{ACAD_REACTORS
330
C
102
}
330
C
100
AcDbDictionary
281
     1
  3
DIMASSOC
350
5D2
  3
HIDETEXT
350
5D3
  3
PSOLHEIGHT
350
5D1
  3
PSOLWIDTH
350
5D0
  0
LAYOUT
  5
1E
102
{ACAD_REACTORS
330
1A
102
}
330
1A
100
AcDbPlotSettings
  1

  2
none_device
  4

  6

 40
0.0
 41
0.0
 42
0.0
 43
0.0
 44
0.0
 45
0.0
 46
0.0
 47
0.0
 48
0.0
 49
0.0
140
0.0
141
0.0
142
1.0
143
1.0
 70
   688
 72
     0
 73
     0
 74
     5
  7

 75
    16
147
1.0
148
0.0
149
0.0
100
AcDbLayout
  1
Layout1
 70
     1
 71
     1
 10
0.0
 20
0.0
 11
297.0
 21
210.0
 12
0.0
 22
0.0
 32
0.0
 14
0.0
 24
0.0
 34
0.0
 15
297.0
 25
210.0
 35
0.0
146
0.0
 13
0.0
 23
0.0
 33
0.0
 16
1.0
 26
0.0
 36
0.0
 17
0.0
 27
1.0
 37
0.0
 76
     0
330
1B
  0
LAYOUT
  5
22
102
{ACAD_REACTORS
330
1A
102
}
330
1A
100
AcDbPlotSettings
  1

  2
none_device
  4

  6

 40
0.0
 41
0.0
 42
0.0
 43
0.0
 44
0.0
 45
0.0
 46
0.0
 47
0.0
 48
0.0
 49
0.0
140
0.0
141
0.0
142
1.0
143
1.0
 70
  1712
 72
     0
 73
     0
 74
     0
  7

 75
     0
147
1.0
148
0.0
149
0.0
100
AcDbLayout
  1
Model
 70
     1
 71
     0
 10
0.0
 20
0.0
 11
297.0
 21
210.0
 12
0.0
 22
0.0
 32
0.0
 14
0.0
 24
0.0
 34
0.0
 15
297.0
 25
210.0
 35
0.0
146
0.0
 13
0.0
 23
0.0
 33
0.0
 16
1.0
 26
0.0
 36
0.0
 17
0.0
 27
1.0
 37
0.0
 76
     0
330
1F
331
29
  0
MATERIAL
  5
3D
102
{ACAD_REACTORS
330
3B
102
}
102
{ACAD_XDICTIONARY
360
5F6
102
}
330
3B
100
AcDbMaterial
  1
ByBlock
  0
MATERIAL
  5
3C
102
{ACAD_REACTORS
330
3B
102
}
102
{ACAD_XDICTIONARY
360
5F4
102
}
330
3B
100
AcDbMaterial
  1
ByLayer
  0
MATERIAL
  5
3E
102
{ACAD_REACTORS
330
3B
102
}
102
{ACAD_XDICTIONARY
360
5F8
102
}
330
3B
100
AcDbMaterial
  1
Global
  0
MLINESTYLE
  5
18
102
{ACAD_REACTORS
330
17
102
}
330
17
100
AcDbMlineStyle
  2
Standard
 70
     0
  3

 62
   256
 51
90.0
 52
90.0
 71
     2
 49
0.5
 62
   256
  6
BYLAYER
 49
-0.5
 62
   256
  6
BYLAYER
  0
ACDBPLACEHOLDER
  5
F
102
{ACAD_REACTORS
330
E
102
}
330
E
  0
VISUALSTYLE
  5
2F
102
{ACAD_REACTORS
330
2A
102
}
102
{ACAD_XDICTIONARY
360
5DC
102
}
330
2A
100
AcDbVisualStyle
  2
2dWireframe
 70
     4
 71
     0
 72
     2
 73
     0
 90
        0
 40
-0.6
 41
-30.0
 62
     5
 63
     7
 74
     1
 91
        4
 64
     7
 65
   257
 75
     1
175
     1
 42
1.0
 92
        0
 66
   257
 43
1.0
 76
     1
 77
     6
 78
     2
 67
     7
 79
     5
170
     0
171
     0
290
     0
174
     0
 93
        1
 44
0.0
173
     0
291
     0
 45
0.0
1001
ACAD
1000
AcDbSavedByObjectVersion
1070
     0
  0
VISUALSTYLE
  5
31
102
{ACAD_REACTORS
330
2A
102
}
102
{ACAD_XDICTIONARY
360
5E0
102
}
330
2A
100
AcDbVisualStyle
  2
3D Hidden
 70
     6
 71
     1
 72
     2
 73
     2
 90
        0
 40
-0.6
 41
-30.0
 62
     5
 63
     7
 74
     2
 91
        2
 64
     7
 65
   257
 75
     2
175
     1
 42
40.0
 92
        0
 66
   257
 43
1.0
 76
     1
 77
     6
 78
     2
 67
     7
 79
     3
170
     0
171
     0
290
     0
174
     0
 93
        1
 44
0.0
173
     0
291
     0
 45
0.0
1001
ACAD
1000
AcDbSavedByObjectVersion
1070
     0
  0
VISUALSTYLE
  5
30
102
{ACAD_REACTORS
330
2A
102
}
102
{ACAD_XDICTIONARY
360
5DE
102
}
330
2A
100
AcDbVisualStyle
  2
3dWireframe
 70
     5
 71
     0
 72
     2
 73
     0
 90
        0
 40
-0.6
 41
-30.0
 62
     5
 63
     7
 74
     1
 91
        4
 64
     7
 65
   257
 75
     1
175
     1
 42
1.0
 92
        0
 66
   257
 43
1.0
 76
     1
 77
     6
 78
     2
 67
     7
 79
     5
170
     0
171
     0
290
     0
174
     0
 93
        1
 44
0.0
173
     0
291
     0
 45
0.0
1001
ACAD
1000
AcDbSavedByObjectVersion
1070
     0
  0
VISUALSTYLE
  5
32
102
{ACAD_REACTORS
330
2A
102
}
102
{ACAD_XDICTIONARY
360
5E2
102
}
330
2A
100
AcDbVisualStyle
  2
Basic
 70
     7
 71
     1
 72
     0
 73
     1
 90
        0
 40
-0.6
 41
-30.0
 62
     5
 63
     7
 74
     0
 91
        4
 64
     7
 65
   257
 75
     1
175
     1
 42
1.0
 92
        8
 66
     7
 43
1.0
 76
     1
 77
     6
 78
     2
 67
     7
 79
     5
170
     0
171
     0
290
     0
174
     0
 93
        1
 44
0.0
173
     0
291
     1
 45
0.0
1001
ACAD
1000
AcDbSavedByObjectVersion
1070
     0
  0
VISUALSTYLE
  5
36
102
{ACAD_REACTORS
330
2A
102
}
102
{ACAD_XDICTIONARY
360
5EA
102
}
330
2A
100
AcDbVisualStyle
  2
Brighten
 70
    12
 71
     2
 72
     2
 73
     0
 90
        0
 40
-0.6
 41
-30.0
 62
     5
 63
     7
 74
     1
 91
        4
 64
     7
 65
   257
 75
     1
175
     1
 42
1.0
 92
        8
 66
     7
 43
1.0
 76
     1
 77
     6
 78
     2
 67
     7
 79
     5
170
     0
171
     0
290
     0
174
     0
 93
        1
 44
50.0
173
     0
291
     1
 45
0.0
1001
ACAD
1000
AcDbSavedByObjectVersion
1070
     0
  0
VISUALSTYLE
  5
3A
102
{ACAD_REACTORS
330
2A
102
}
102
{ACAD_XDICTIONARY
360
5F2
102
}
330
2A
100
AcDbVisualStyle
  2
ColorChange
 70
    16
 71
     2
 72
     2
 73
     3
 90
        0
 40
-0.6
 41
-30.0
 62
     5
 63
     8
 74
     1
 91
        4
 64
     7
 65
   257
 75
     1
175
     1
 42
1.0
 92
        8
 66
     8
 43
1.0
 76
     1
 77
     6
 78
     2
 67
     7
 79
     5
170
     0
171
     0
290
     0
174
     0
 93
        1
 44
0.0
173
     0
291
     1
 45
0.0
1001
ACAD
1000
AcDbSavedByObjectVersion
1070
     0
  0
VISUALSTYLE
  5
34
102
{ACAD_REACTORS
330
2A
102
}
102
{ACAD_XDICTIONARY
360
5E6
102
}
330
2A
100
AcDbVisualStyle
  2
Conceptual
 70
     9
 71
     3
 72
     2
 73
     0
 90
        0
 40
-0.6
 41
-30.0
 62
     5
 63
     7
 74
     2
 91
        2
 64
     7
 65
   257
 75
     1
175
     1
 42
40.0
 92
        8
 66
     7
 43
1.0
 76
     1
 77
     6
 78
     2
 67
     7
 79
     3
170
     0
171
     0
290
     0
174
     0
 93
        1
 44
0.0
173
     0
291
     0
 45
0.0
1001
ACAD
1000
AcDbSavedByObjectVersion
1070
     0
  0
VISUALSTYLE
  5
35
102
{ACAD_REACTORS
330
2A
102
}
102
{ACAD_XDICTIONARY
360
5E8
102
}
330
2A
100
AcDbVisualStyle
  2
Dim
 70
    11
 71
     2
 72
     2
 73
     0
 90
        0
 40
-0.6
 41
-30.0
 62
     5
 63
     7
 74
     1
 91
        4
 64
     7
 65
   257
 75
     1
175
     1
 42
1.0
 92
        8
 66
     7
 43
1.0
 76
     1
 77
     6
 78
     2
 67
     7
 79
     5
170
     0
171
     0
290
     0
174
     0
 93
        1
 44
-50.0
173
     0
291
     1
 45
0.0
1001
ACAD
1000
AcDbSavedByObjectVersion
1070
     0
  0
VISUALSTYLE
  5
39
102
{ACAD_REACTORS
330
2A
102
}
102
{ACAD_XDICTIONARY
360
5F0
102
}
330
2A
100
AcDbVisualStyle
  2
Facepattern
 70
    15
 71
     2
 72
     2
 73
     0
 90
        0
 40
-0.6
 41
-30.0
 62
     5
 63
     7
 74
     1
 91
        4
 64
     7
 65
   257
 75
     1
175
     1
 42
1.0
 92
        8
 66
     7
 43
1.0
 76
     1
 77
     6
 78
     2
 67
     7
 79
     5
170
     0
171
     0
290
     0
174
     0
 93
        1
 44
0.0
173
     0
291
     1
 45
0.0
1001
ACAD
1000
AcDbSavedByObjectVersion
1070
     0
  0
VISUALSTYLE
  5
2B
102
{ACAD_REACTORS
330
2A
102
}
102
{ACAD_XDICTIONARY
360
5D4
102
}
330
2A
100
AcDbVisualStyle
  2
Flat
 70
     0
 71
     2
 72
     1
 73
     1
 90
        2
 40
-0.6
 41
30.0
 62
     5
 63
     7
 74
     0
 91
        4
 64
     7
 65
   257
 75
     1
175
     1
 42
1.0
 92
        8
 66
     7
 43
1.0
 76
     1
 77
     6
 78
     2
 67
     7
 79
     5
170
     0
171
     0
290
     0
174
     0
 93
       13
 44
0.0
173
     0
291
     1
 45
0.0
1001
ACAD
1000
AcDbSavedByObjectVersion
1070
     0
  0
VISUALSTYLE
  5
2C
102
{ACAD_REACTORS
330
2A
102
}
102
{ACAD_XDICTIONARY
360
5D6
102
}
330
2A
100
AcDbVisualStyle
  2
FlatWithEdges
 70
     1
 71
     2
 72
     1
 73
     1
 90
        2
 40
-0.6
 41
30.0
 62
     5
 63
     7
 74
     1
 91
        4
 64
     7
 65
   257
 75
     1
175
     1
 42
1.0
 92
        0
 66
   257
 43
1.0
 76
     1
 77
     6
 78
     2
 67
     7
 79
     5
170
     0
171
     0
290
     0
174
     0
 93
       13
 44
0.0
173
     0
291
     1
 45
0.0
1001
ACAD
1000
AcDbSavedByObjectVersion
1070
     0
  0
VISUALSTYLE
  5
2D
102
{ACAD_REACTORS
330
2A
102
}
102
{ACAD_XDICTIONARY
360
5D8
102
}
330
2A
100
AcDbVisualStyle
  2
Gouraud
 70
     2
 71
     2
 72
     2
 73
     1
 90
        2
 40
-0.6
 41
30.0
 62
     5
 63
     7
 74
     0
 91
        4
 64
     7
 65
   257
 75
     1
175
     1
 42
1.0
 92
        0
 66
     7
 43
1.0
 76
     1
 77
     6
 78
     2
 67
     7
 79
     5
170
     0
171
     0
290
     0
174
     0
 93
       13
 44
0.0
173
     0
291
     1
 45
0.0
1001
ACAD
1000
AcDbSavedByObjectVersion
1070
     0
  0
VISUALSTYLE
  5
2E
102
{ACAD_REACTORS
330
2A
102
}
102
{ACAD_XDICTIONARY
360
5DA
102
}
330
2A
100
AcDbVisualStyle
  2
GouraudWithEdges
 70
     3
 71
     2
 72
     2
 73
     1
 90
        2
 40
-0.6
 41
30.0
 62
     5
 63
     7
 74
     1
 91
        4
 64
     7
 65
   257
 75
     1
175
     1
 42
1.0
 92
        0
 66
   257
 43
1.0
 76
     1
 77
     6
 78
     2
 67
     7
 79
     5
170
     0
171
     0
290
     0
174
     0
 93
       13
 44
0.0
173
     0
291
     1
 45
0.0
1001
ACAD
1000
AcDbSavedByObjectVersion
1070
     0
  0
VISUALSTYLE
  5
38
102
{ACAD_REACTORS
330
2A
102
}
102
{ACAD_XDICTIONARY
360
5EE
102
}
330
2A
100
AcDbVisualStyle
  2
Linepattern
 70
    14
 71
     2
 72
     2
 73
     0
 90
        0
 40
-0.6
 41
-30.0
 62
     5
 63
     7
 74
     1
 91
        4
 64
     7
 65
   257
 75
     7
175
     7
 42
1.0
 92
        8
 66
     7
 43
1.0
 76
     1
 77
     6
 78
     2
 67
     7
 79
     5
170
     0
171
     0
290
     0
174
     0
 93
        1
 44
0.0
173
     0
291
     1
 45
0.0
1001
ACAD
1000
AcDbSavedByObjectVersion
1070
     0
  0
VISUALSTYLE
  5
33
102
{ACAD_REACTORS
330
2A
102
}
102
{ACAD_XDICTIONARY
360
5E4
102
}
330
2A
100
AcDbVisualStyle
  2
Realistic
 70
     8
 71
     2
 72
     2
 73
     0
 90
        0
 40
-0.6
 41
-30.0
 62
     5
 63
     7
 74
     1
 91
        0
 64
     7
 65
   257
 75
     1
175
     1
 42
1.0
 92
        8
 66
     8
 43
1.0
 76
     1
 77
     6
 78
     2
 67
     7
 79
     5
170
     0
171
     0
290
     0
174
     0
 93
       13
 44
0.0
173
     0
291
     0
 45
0.0
1001
ACAD
1000
AcDbSavedByObjectVersion
1070
     0
  0
VISUALSTYLE
  5
37
102
{ACAD_REACTORS
330
2A
102
}
102
{ACAD_XDICTIONARY
360
5EC
102
}
330
2A
100
AcDbVisualStyle
  2
Thicken
 70
    13
 71
     2
 72
     2
 73
     0
 90
        0
 40
-0.6
 41
-30.0
 62
     5
 63
     7
 74
     1
 91
        4
 64
     7
 65
   257
 75
     1
175
     1
 42
1.0
 92
       12
 66
     7
 43
1.0
 76
     1
 77
     6
 78
     2
 67
     7
 79
     5
170
     0
171
     0
290
     0
174
     0
 93
        1
 44
0.0
173
     0
291
     1
 45
0.0
1001
ACAD
1000
AcDbSavedByObjectVersion
1070
     0
  0
DICTIONARYVAR
  5
5D2
102
{ACAD_REACTORS
330
5CD
102
}
330
5CD
100
DictionaryVariables
280
     0
  1
2
  0
DICTIONARYVAR
  5
5D3
102
{ACAD_REACTORS
330
5CD
102
}
330
5CD
100
DictionaryVariables
280
     0
  1
1
  0
DICTIONARYVAR
  5
5D1
102
{ACAD_REACTORS
330
5CD
102
}
330
5CD
100
DictionaryVariables
280
     0
  1
80.000000
  0
DICTIONARYVAR
  5
5D0
102
{ACAD_REACTORS
330
5CD
102
}
330
5CD
100
DictionaryVariables
280
     0
  1
5.000000
  0
DICTIONARY
  5
5F6
330
3D
100
AcDbDictionary
280
     1
281
     1
  3
ACAD_XREC_ROUNDTRIP
360
5F7
  0
DICTIONARY
  5
5F4
330
3C
100
AcDbDictionary
280
     1
281
     1
  3
ACAD_XREC_ROUNDTRIP
360
5F5
  0
DICTIONARY
  5
5F8
330
3E
100
AcDbDictionary
280
     1
281
     1
  3
ACAD_XREC_ROUNDTRIP
360
5F9
  0
DICTIONARY
  5
5DC
330
2F
100
AcDbDictionary
280
     1
281
     1
  3
ACAD_XREC_ROUNDTRIP
360
5DD
  0
DICTIONARY
  5
5E0
330
31
100
AcDbDictionary
280
     1
281
     1
  3
ACAD_XREC_ROUNDTRIP
360
5E1
  0
DICTIONARY
  5
5DE
330
30
100
AcDbDictionary
280
     1
281
     1
  3
ACAD_XREC_ROUNDTRIP
360
5DF
  0
DICTIONARY
  5
5E2
330
32
100
AcDbDictionary
280
     1
281
     1
  3
ACAD_XREC_ROUNDTRIP
360
5E3
  0
DICTIONARY
  5
5EA
330
36
100
AcDbDictionary
280
     1
281
     1
  3
ACAD_XREC_ROUNDTRIP
360
5EB
  0
DICTIONARY
  5
5F2
330
3A
100
AcDbDictionary
280
     1
281
     1
  3
ACAD_XREC_ROUNDTRIP
360
5F3
  0
DICTIONARY
  5
5E6
330
34
100
AcDbDictionary
280
     1
281
     1
  3
ACAD_XREC_ROUNDTRIP
360
5E7
  0
DICTIONARY
  5
5E8
330
35
100
AcDbDictionary
280
     1
281
     1
  3
ACAD_XREC_ROUNDTRIP
360
5E9
  0
DICTIONARY
  5
5F0
330
39
100
AcDbDictionary
280
     1
281
     1
  3
ACAD_XREC_ROUNDTRIP
360
5F1
  0
DICTIONARY
  5
5D4
330
2B
100
AcDbDictionary
280
     1
281
     1
  3
ACAD_XREC_ROUNDTRIP
360
5D5
  0
DICTIONARY
  5
5D6
330
2C
100
AcDbDictionary
280
     1
281
     1
  3
ACAD_XREC_ROUNDTRIP
360
5D7
  0
DICTIONARY
  5
5D8
330
2D
100
AcDbDictionary
280
     1
281
     1
  3
ACAD_XREC_ROUNDTRIP
360
5D9
  0
DICTIONARY
  5
5DA
330
2E
100
AcDbDictionary
280
     1
281
     1
  3
ACAD_XREC_ROUNDTRIP
360
5DB
  0
DICTIONARY
  5
5EE
330
38
100
AcDbDictionary
280
     1
281
     1
  3
ACAD_XREC_ROUNDTRIP
360
5EF
  0
DICTIONARY
  5
5E4
330
33
100
AcDbDictionary
280
     1
281
     1
  3
ACAD_XREC_ROUNDTRIP
360
5E5
  0
DICTIONARY
  5
5EC
330
37
100
AcDbDictionary
280
     1
281
     1
  3
ACAD_XREC_ROUNDTRIP
360
5ED
  0
XRECORD
  5
5F7
102
{ACAD_REACTORS
330
5F6
102
}
330
5F6
100
AcDbXrecord
280
     1
102
MATERIAL
148
0.0
149
0.0
149
0.0
 93
        0
 94
      127
282
     0
 72
     1
 77
     1
171
     1
175
     1
179
     1
273
     0
  0
XRECORD
  5
5F5
102
{ACAD_REACTORS
330
5F4
102
}
330
5F4
100
AcDbXrecord
280
     1
102
MATERIAL
148
0.0
149
0.0
149
0.0
 93
        0
 94
      127
282
     0
 72
     1
 77
     1
171
     1
175
     1
179
     1
273
     0
  0
XRECORD
  5
5F9
102
{ACAD_REACTORS
330
5F8
102
}
330
5F8
100
AcDbXrecord
280
     1
102
MATERIAL
148
0.0
149
0.0
149
0.0
 93
        0
 94
      127
282
     0
 72
     1
 77
     1
171
     1
175
     1
179
     1
273
     0
  0
XRECORD
  5
5DD
102
{ACAD_REACTORS
330
5DC
102
}
330
5DC
100
AcDbXrecord
280
     1
102
RTVSPropertyOp0
 70
     1
102
RTVSPropertyOp1
 70
     1
102
RTVSPropertyOp2
 70
     1
102
RTVSPropertyOp3
 70
     1
102
RTVSPropertyOp4
 70
     1
102
RTVSPropertyOp5
 70
     1
102
RTVSPropertyOp6
 70
     1
102
RTVSPropertyOp7
 70
     1
102
RTVSPropertyOp8
 70
     1
102
RTVSPropertyOp9
 70
     1
102
RTVSPropertyOp10
 70
     1
102
RTVSPropertyOp11
 70
     1
102
RTVSPropertyOp12
 70
     1
102
RTVSPropertyOp13
 70
     1
102
RTVSPropertyOp14
 70
     1
102
RTVSPropertyOp15
 70
     1
102
RTVSPropertyOp16
 70
     1
102
RTVSPropertyOp17
 70
     1
102
RTVSPropertyOp18
 70
     1
102
RTVSPropertyOp19
 70
     1
102
RTVSPropertyOp20
 70
     1
102
RTVSPropertyOp21
 70
     1
102
RTVSPropertyOp22
 70
     1
102
RTVSPropertyOp23
 70
     1
102
RTVSPropertyOp24
 70
     1
102
RTVSPropertyOp25
 70
     1
102
RTVSPropertyOp26
 70
     1
102
RTVSPropertyOp27
 70
     1
  0
XRECORD
  5
5E1
102
{ACAD_REACTORS
330
5E0
102
}
330
5E0
100
AcDbXrecord
280
     1
102
RTVSPropertyOp0
 70
     1
102
RTVSPropertyOp1
 70
     1
102
RTVSPropertyOp2
 70
     1
102
RTVSPropertyOp3
 70
     1
102
RTVSPropertyOp4
 70
     1
102
RTVSPropertyOp5
 70
     1
102
RTVSPropertyOp6
 70
     1
102
RTVSPropertyOp7
 70
     1
102
RTVSPropertyOp8
 70
     1
102
RTVSPropertyOp9
 70
     1
102
RTVSPropertyOp10
 70
     1
102
RTVSPropertyOp11
 70
     1
102
RTVSPropertyOp12
 70
     1
102
RTVSPropertyOp13
 70
     1
102
RTVSPropertyOp14
 70
     1
102
RTVSPropertyOp15
 70
     1
102
RTVSPropertyOp16
 70
     1
102
RTVSPropertyOp17
 70
     1
102
RTVSPropertyOp18
 70
     1
102
RTVSPropertyOp19
 70
     1
102
RTVSPropertyOp20
 70
     1
102
RTVSPropertyOp21
 70
     1
102
RTVSPropertyOp22
 70
     1
102
RTVSPropertyOp23
 70
     1
102
RTVSPropertyOp24
 70
     1
102
RTVSPropertyOp25
 70
     1
102
RTVSPropertyOp26
 70
     1
102
RTVSPropertyOp27
 70
     1
  0
XRECORD
  5
5DF
102
{ACAD_REACTORS
330
5DE
102
}
330
5DE
100
AcDbXrecord
280
     1
102
RTVSPropertyOp0
 70
     1
102
RTVSPropertyOp1
 70
     1
102
RTVSPropertyOp2
 70
     1
102
RTVSPropertyOp3
 70
     1
102
RTVSPropertyOp4
 70
     1
102
RTVSPropertyOp5
 70
     1
102
RTVSPropertyOp6
 70
     1
102
RTVSPropertyOp7
 70
     1
102
RTVSPropertyOp8
 70
     1
102
RTVSPropertyOp9
 70
     1
102
RTVSPropertyOp10
 70
     1
102
RTVSPropertyOp11
 70
     1
102
RTVSPropertyOp12
 70
     1
102
RTVSPropertyOp13
 70
     1
102
RTVSPropertyOp14
 70
     1
102
RTVSPropertyOp15
 70
     1
102
RTVSPropertyOp16
 70
     1
102
RTVSPropertyOp17
 70
     1
102
RTVSPropertyOp18
 70
     1
102
RTVSPropertyOp19
 70
     1
102
RTVSPropertyOp20
 70
     1
102
RTVSPropertyOp21
 70
     1
102
RTVSPropertyOp22
 70
     1
102
RTVSPropertyOp23
 70
     1
102
RTVSPropertyOp24
 70
     1
102
RTVSPropertyOp25
 70
     1
102
RTVSPropertyOp26
 70
     1
102
RTVSPropertyOp27
 70
     1
  0
XRECORD
  5
5E3
102
{ACAD_REACTORS
330
5E2
102
}
330
5E2
100
AcDbXrecord
280
     1
102
RTVSPropertyOp0
 70
     1
102
RTVSPropertyOp1
 70
     1
102
RTVSPropertyOp2
 70
     1
102
RTVSPropertyOp3
 70
     1
102
RTVSPropertyOp4
 70
     1
102
RTVSPropertyOp5
 70
     1
102
RTVSPropertyOp6
 70
     1
102
RTVSPropertyOp7
 70
     1
102
RTVSPropertyOp8
 70
     1
102
RTVSPropertyOp9
 70
     1
102
RTVSPropertyOp10
 70
     1
102
RTVSPropertyOp11
 70
     1
102
RTVSPropertyOp12
 70
     1
102
RTVSPropertyOp13
 70
     1
102
RTVSPropertyOp14
 70
     1
102
RTVSPropertyOp15
 70
     1
102
RTVSPropertyOp16
 70
     1
102
RTVSPropertyOp17
 70
     1
102
RTVSPropertyOp18
 70
     1
102
RTVSPropertyOp19
 70
     1
102
RTVSPropertyOp20
 70
     1
102
RTVSPropertyOp21
 70
     1
102
RTVSPropertyOp22
 70
     1
102
RTVSPropertyOp23
 70
     1
102
RTVSPropertyOp24
 70
     1
102
RTVSPropertyOp25
 70
     1
102
RTVSPropertyOp26
 70
     1
102
RTVSPropertyOp27
 70
     1
  0
XRECORD
  5
5EB
102
{ACAD_REACTORS
330
5EA
102
}
330
5EA
100
AcDbXrecord
280
     1
102
RTVSPropertyOp0
 70
     1
102
RTVSPropertyOp1
 70
     1
102
RTVSPropertyOp2
 70
     1
102
RTVSPropertyOp3
 70
     1
102
RTVSPropertyOp4
 70
     1
102
RTVSPropertyOp5
 70
     1
102
RTVSPropertyOp6
 70
     1
102
RTVSPropertyOp7
 70
     1
102
RTVSPropertyOp8
 70
     1
102
RTVSPropertyOp9
 70
     1
102
RTVSPropertyOp10
 70
     1
102
RTVSPropertyOp11
 70
     1
102
RTVSPropertyOp12
 70
     1
102
RTVSPropertyOp13
 70
     1
102
RTVSPropertyOp14
 70
     1
102
RTVSPropertyOp15
 70
     1
102
RTVSPropertyOp16
 70
     1
102
RTVSPropertyOp17
 70
     1
102
RTVSPropertyOp18
 70
     1
102
RTVSPropertyOp19
 70
     1
102
RTVSPropertyOp20
 70
     1
102
RTVSPropertyOp21
 70
     1
102
RTVSPropertyOp22
 70
     1
102
RTVSPropertyOp23
 70
     1
102
RTVSPropertyOp24
 70
     1
102
RTVSPropertyOp25
 70
     1
102
RTVSPropertyOp26
 70
     1
102
RTVSPropertyOp27
 70
     1
  0
XRECORD
  5
5F3
102
{ACAD_REACTORS
330
5F2
102
}
330
5F2
100
AcDbXrecord
280
     1
102
RTVSPropertyOp0
 70
     1
102
RTVSPropertyOp1
 70
     1
102
RTVSPropertyOp2
 70
     1
102
RTVSPropertyOp3
 70
     1
102
RTVSPropertyOp4
 70
     1
102
RTVSPropertyOp5
 70
     1
102
RTVSPropertyOp6
 70
     1
102
RTVSPropertyOp7
 70
     1
102
RTVSPropertyOp8
 70
     1
102
RTVSPropertyOp9
 70
     1
102
RTVSPropertyOp10
 70
     1
102
RTVSPropertyOp11
 70
     1
102
RTVSPropertyOp12
 70
     1
102
RTVSPropertyOp13
 70
     1
102
RTVSPropertyOp14
 70
     1
102
RTVSPropertyOp15
 70
     1
102
RTVSPropertyOp16
 70
     1
102
RTVSPropertyOp17
 70
     1
102
RTVSPropertyOp18
 70
     1
102
RTVSPropertyOp19
 70
     1
102
RTVSPropertyOp20
 70
     1
102
RTVSPropertyOp21
 70
     1
102
RTVSPropertyOp22
 70
     1
102
RTVSPropertyOp23
 70
     1
102
RTVSPropertyOp24
 70
     1
102
RTVSPropertyOp25
 70
     1
102
RTVSPropertyOp26
 70
     1
102
RTVSPropertyOp27
 70
     1
  0
XRECORD
  5
5E7
102
{ACAD_REACTORS
330
5E6
102
}
330
5E6
100
AcDbXrecord
280
     1
102
RTVSPropertyOp0
 70
     1
102
RTVSPropertyOp1
 70
     1
102
RTVSPropertyOp2
 70
     1
102
RTVSPropertyOp3
 70
     1
102
RTVSPropertyOp4
 70
     1
102
RTVSPropertyOp5
 70
     1
102
RTVSPropertyOp6
 70
     1
102
RTVSPropertyOp7
 70
     1
102
RTVSPropertyOp8
 70
     1
102
RTVSPropertyOp9
 70
     1
102
RTVSPropertyOp10
 70
     1
102
RTVSPropertyOp11
 70
     1
102
RTVSPropertyOp12
 70
     1
102
RTVSPropertyOp13
 70
     1
102
RTVSPropertyOp14
 70
     1
102
RTVSPropertyOp15
 70
     1
102
RTVSPropertyOp16
 70
     1
102
RTVSPropertyOp17
 70
     1
102
RTVSPropertyOp18
 70
     1
102
RTVSPropertyOp19
 70
     1
102
RTVSPropertyOp20
 70
     1
102
RTVSPropertyOp21
 70
     1
102
RTVSPropertyOp22
 70
     1
102
RTVSPropertyOp23
 70
     1
102
RTVSPropertyOp24
 70
     1
102
RTVSPropertyOp25
 70
     1
102
RTVSPropertyOp26
 70
     1
102
RTVSPropertyOp27
 70
     1
  0
XRECORD
  5
5E9
102
{ACAD_REACTORS
330
5E8
102
}
330
5E8
100
AcDbXrecord
280
     1
102
RTVSPropertyOp0
 70
     1
102
RTVSPropertyOp1
 70
     1
102
RTVSPropertyOp2
 70
     1
102
RTVSPropertyOp3
 70
     1
102
RTVSPropertyOp4
 70
     1
102
RTVSPropertyOp5
 70
     1
102
RTVSPropertyOp6
 70
     1
102
RTVSPropertyOp7
 70
     1
102
RTVSPropertyOp8
 70
     1
102
RTVSPropertyOp9
 70
     1
102
RTVSPropertyOp10
 70
     1
102
RTVSPropertyOp11
 70
     1
102
RTVSPropertyOp12
 70
     1
102
RTVSPropertyOp13
 70
     1
102
RTVSPropertyOp14
 70
     1
102
RTVSPropertyOp15
 70
     1
102
RTVSPropertyOp16
 70
     1
102
RTVSPropertyOp17
 70
     1
102
RTVSPropertyOp18
 70
     1
102
RTVSPropertyOp19
 70
     1
102
RTVSPropertyOp20
 70
     1
102
RTVSPropertyOp21
 70
     1
102
RTVSPropertyOp22
 70
     1
102
RTVSPropertyOp23
 70
     1
102
RTVSPropertyOp24
 70
     1
102
RTVSPropertyOp25
 70
     1
102
RTVSPropertyOp26
 70
     1
102
RTVSPropertyOp27
 70
     1
  0
XRECORD
  5
5F1
102
{ACAD_REACTORS
330
5F0
102
}
330
5F0
100
AcDbXrecord
280
     1
102
RTVSPropertyOp0
 70
     1
102
RTVSPropertyOp1
 70
     1
102
RTVSPropertyOp2
 70
     1
102
RTVSPropertyOp3
 70
     1
102
RTVSPropertyOp4
 70
     1
102
RTVSPropertyOp5
 70
     1
102
RTVSPropertyOp6
 70
     1
102
RTVSPropertyOp7
 70
     1
102
RTVSPropertyOp8
 70
     1
102
RTVSPropertyOp9
 70
     1
102
RTVSPropertyOp10
 70
     1
102
RTVSPropertyOp11
 70
     1
102
RTVSPropertyOp12
 70
     1
102
RTVSPropertyOp13
 70
     1
102
RTVSPropertyOp14
 70
     1
102
RTVSPropertyOp15
 70
     1
102
RTVSPropertyOp16
 70
     1
102
RTVSPropertyOp17
 70
     1
102
RTVSPropertyOp18
 70
     1
102
RTVSPropertyOp19
 70
     1
102
RTVSPropertyOp20
 70
     1
102
RTVSPropertyOp21
 70
     1
102
RTVSPropertyOp22
 70
     1
102
RTVSPropertyOp23
 70
     1
102
RTVSPropertyOp24
 70
     1
102
RTVSPropertyOp25
 70
     1
102
RTVSPropertyOp26
 70
     1
102
RTVSPropertyOp27
 70
     1
  0
XRECORD
  5
5D5
102
{ACAD_REACTORS
330
5D4
102
}
330
5D4
100
AcDbXrecord
280
     1
102
RTVSPropertyOp0
 70
     1
102
RTVSPropertyOp1
 70
     1
102
RTVSPropertyOp2
 70
     1
102
RTVSPropertyOp3
 70
     1
102
RTVSPropertyOp4
 70
     1
102
RTVSPropertyOp5
 70
     1
102
RTVSPropertyOp6
 70
     1
102
RTVSPropertyOp7
 70
     1
102
RTVSPropertyOp8
 70
     1
102
RTVSPropertyOp9
 70
     1
102
RTVSPropertyOp10
 70
     1
102
RTVSPropertyOp11
 70
     1
102
RTVSPropertyOp12
 70
     1
102
RTVSPropertyOp13
 70
     1
102
RTVSPropertyOp14
 70
     1
102
RTVSPropertyOp15
 70
     1
102
RTVSPropertyOp16
 70
     1
102
RTVSPropertyOp17
 70
     1
102
RTVSPropertyOp18
 70
     1
102
RTVSPropertyOp19
 70
     1
102
RTVSPropertyOp20
 70
     1
102
RTVSPropertyOp21
 70
     1
102
RTVSPropertyOp22
 70
     1
102
RTVSPropertyOp23
 70
     1
102
RTVSPropertyOp24
 70
     1
102
RTVSPropertyOp25
 70
     1
102
RTVSPropertyOp26
 70
     1
102
RTVSPropertyOp27
 70
     1
  0
XRECORD
  5
5D7
102
{ACAD_REACTORS
330
5D6
102
}
330
5D6
100
AcDbXrecord
280
     1
102
RTVSPropertyOp0
 70
     1
102
RTVSPropertyOp1
 70
     1
102
RTVSPropertyOp2
 70
     1
102
RTVSPropertyOp3
 70
     1
102
RTVSPropertyOp4
 70
     1
102
RTVSPropertyOp5
 70
     1
102
RTVSPropertyOp6
 70
     1
102
RTVSPropertyOp7
 70
     1
102
RTVSPropertyOp8
 70
     1
102
RTVSPropertyOp9
 70
     1
102
RTVSPropertyOp10
 70
     1
102
RTVSPropertyOp11
 70
     1
102
RTVSPropertyOp12
 70
     1
102
RTVSPropertyOp13
 70
     1
102
RTVSPropertyOp14
 70
     1
102
RTVSPropertyOp15
 70
     1
102
RTVSPropertyOp16
 70
     1
102
RTVSPropertyOp17
 70
     1
102
RTVSPropertyOp18
 70
     1
102
RTVSPropertyOp19
 70
     1
102
RTVSPropertyOp20
 70
     1
102
RTVSPropertyOp21
 70
     1
102
RTVSPropertyOp22
 70
     1
102
RTVSPropertyOp23
 70
     1
102
RTVSPropertyOp24
 70
     1
102
RTVSPropertyOp25
 70
     1
102
RTVSPropertyOp26
 70
     1
102
RTVSPropertyOp27
 70
     1
  0
XRECORD
  5
5D9
102
{ACAD_REACTORS
330
5D8
102
}
330
5D8
100
AcDbXrecord
280
     1
102
RTVSPropertyOp0
 70
     1
102
RTVSPropertyOp1
 70
     1
102
RTVSPropertyOp2
 70
     1
102
RTVSPropertyOp3
 70
     1
102
RTVSPropertyOp4
 70
     1
102
RTVSPropertyOp5
 70
     1
102
RTVSPropertyOp6
 70
     1
102
RTVSPropertyOp7
 70
     1
102
RTVSPropertyOp8
 70
     1
102
RTVSPropertyOp9
 70
     1
102
RTVSPropertyOp10
 70
     1
102
RTVSPropertyOp11
 70
     1
102
RTVSPropertyOp12
 70
     1
102
RTVSPropertyOp13
 70
     1
102
RTVSPropertyOp14
 70
     1
102
RTVSPropertyOp15
 70
     1
102
RTVSPropertyOp16
 70
     1
102
RTVSPropertyOp17
 70
     1
102
RTVSPropertyOp18
 70
     1
102
RTVSPropertyOp19
 70
     1
102
RTVSPropertyOp20
 70
     1
102
RTVSPropertyOp21
 70
     1
102
RTVSPropertyOp22
 70
     1
102
RTVSPropertyOp23
 70
     1
102
RTVSPropertyOp24
 70
     1
102
RTVSPropertyOp25
 70
     1
102
RTVSPropertyOp26
 70
     1
102
RTVSPropertyOp27
 70
     1
  0
XRECORD
  5
5DB
102
{ACAD_REACTORS
330
5DA
102
}
330
5DA
100
AcDbXrecord
280
     1
102
RTVSPropertyOp0
 70
     1
102
RTVSPropertyOp1
 70
     1
102
RTVSPropertyOp2
 70
     1
102
RTVSPropertyOp3
 70
     1
102
RTVSPropertyOp4
 70
     1
102
RTVSPropertyOp5
 70
     1
102
RTVSPropertyOp6
 70
     1
102
RTVSPropertyOp7
 70
     1
102
RTVSPropertyOp8
 70
     1
102
RTVSPropertyOp9
 70
     1
102
RTVSPropertyOp10
 70
     1
102
RTVSPropertyOp11
 70
     1
102
RTVSPropertyOp12
 70
     1
102
RTVSPropertyOp13
 70
     1
102
RTVSPropertyOp14
 70
     1
102
RTVSPropertyOp15
 70
     1
102
RTVSPropertyOp16
 70
     1
102
RTVSPropertyOp17
 70
     1
102
RTVSPropertyOp18
 70
     1
102
RTVSPropertyOp19
 70
     1
102
RTVSPropertyOp20
 70
     1
102
RTVSPropertyOp21
 70
     1
102
RTVSPropertyOp22
 70
     1
102
RTVSPropertyOp23
 70
     1
102
RTVSPropertyOp24
 70
     1
102
RTVSPropertyOp25
 70
     1
102
RTVSPropertyOp26
 70
     1
102
RTVSPropertyOp27
 70
     1
  0
XRECORD
  5
5EF
102
{ACAD_REACTORS
330
5EE
102
}
330
5EE
100
AcDbXrecord
280
     1
102
RTVSPropertyOp0
 70
     1
102
RTVSPropertyOp1
 70
     1
102
RTVSPropertyOp2
 70
     1
102
RTVSPropertyOp3
 70
     1
102
RTVSPropertyOp4
 70
     1
102
RTVSPropertyOp5
 70
     1
102
RTVSPropertyOp6
 70
     1
102
RTVSPropertyOp7
 70
     1
102
RTVSPropertyOp8
 70
     1
102
RTVSPropertyOp9
 70
     1
102
RTVSPropertyOp10
 70
     1
102
RTVSPropertyOp11
 70
     1
102
RTVSPropertyOp12
 70
     1
102
RTVSPropertyOp13
 70
     1
102
RTVSPropertyOp14
 70
     1
102
RTVSPropertyOp15
 70
     1
102
RTVSPropertyOp16
 70
     1
102
RTVSPropertyOp17
 70
     1
102
RTVSPropertyOp18
 70
     1
102
RTVSPropertyOp19
 70
     1
102
RTVSPropertyOp20
 70
     1
102
RTVSPropertyOp21
 70
     1
102
RTVSPropertyOp22
 70
     1
102
RTVSPropertyOp23
 70
     1
102
RTVSPropertyOp24
 70
     1
102
RTVSPropertyOp25
 70
     1
102
RTVSPropertyOp26
 70
     1
102
RTVSPropertyOp27
 70
     1
  0
XRECORD
  5
5E5
102
{ACAD_REACTORS
330
5E4
102
}
330
5E4
100
AcDbXrecord
280
     1
102
RTVSPropertyOp0
 70
     1
102
RTVSPropertyOp1
 70
     1
102
RTVSPropertyOp2
 70
     1
102
RTVSPropertyOp3
 70
     1
102
RTVSPropertyOp4
 70
     1
102
RTVSPropertyOp5
 70
     1
102
RTVSPropertyOp6
 70
     1
102
RTVSPropertyOp7
 70
     1
102
RTVSPropertyOp8
 70
     1
102
RTVSPropertyOp9
 70
     1
102
RTVSPropertyOp10
 70
     1
102
RTVSPropertyOp11
 70
     1
102
RTVSPropertyOp12
 70
     1
102
RTVSPropertyOp13
 70
     1
102
RTVSPropertyOp14
 70
     1
102
RTVSPropertyOp15
 70
     1
102
RTVSPropertyOp16
 70
     1
102
RTVSPropertyOp17
 70
     1
102
RTVSPropertyOp18
 70
     1
102
RTVSPropertyOp19
 70
     1
102
RTVSPropertyOp20
 70
     1
102
RTVSPropertyOp21
 70
     1
102
RTVSPropertyOp22
 70
     1
102
RTVSPropertyOp23
 70
     1
102
RTVSPropertyOp24
 70
     1
102
RTVSPropertyOp25
 70
     1
102
RTVSPropertyOp26
 70
     1
102
RTVSPropertyOp27
 70
     1
  0
XRECORD
  5
5ED
102
{ACAD_REACTORS
330
5EC
102
}
330
5EC
100
AcDbXrecord
280
     1
102
RTVSPropertyOp0
 70
     1
102
RTVSPropertyOp1
 70
     1
102
RTVSPropertyOp2
 70
     1
102
RTVSPropertyOp3
 70
     1
102
RTVSPropertyOp4
 70
     1
102
RTVSPropertyOp5
 70
     1
102
RTVSPropertyOp6
 70
     1
102
RTVSPropertyOp7
 70
     1
102
RTVSPropertyOp8
 70
     1
102
RTVSPropertyOp9
 70
     1
102
RTVSPropertyOp10
 70
     1
102
RTVSPropertyOp11
 70
     1
102
RTVSPropertyOp12
 70
     1
102
RTVSPropertyOp13
 70
     1
102
RTVSPropertyOp14
 70
     1
102
RTVSPropertyOp15
 70
     1
102
RTVSPropertyOp16
 70
     1
102
RTVSPropertyOp17
 70
     1
102
RTVSPropertyOp18
 70
     1
102
RTVSPropertyOp19
 70
     1
102
RTVSPropertyOp20
 70
     1
102
RTVSPropertyOp21
 70
     1
102
RTVSPropertyOp22
 70
     1
102
RTVSPropertyOp23
 70
     1
102
RTVSPropertyOp24
 70
     1
102
RTVSPropertyOp25
 70
     1
102
RTVSPropertyOp26
 70
     1
102
RTVSPropertyOp27
 70
     1
  0
ENDSEC
  0
EOF
